ℒund – Moon Intro Tab

Moon Intro Tab

Moon Track Info

e|-----------------------------------| 
B|-----------------------------------|
G|-----5-----5------5-----5----------|
D|---3-----3------3-----3-----3---3--|
A|-5-----5------5-----5-----5---5----|
E|-----------------------------------|

e|-----------------------------------|
B|-----------------------------------|
G|-----5-----5-----5-----5-----------|
D|---3-----3-----3-----3-----5---5---|
A|-3-----3-----3-----3-----3---3-----|
E|-----------------------------------|

e|-----------------------------------|
B|-----------------------------------|
G|-----5-----5-----5-----5-----------|
D|---3-----3-----3-----3------3---3--|
A|-0-----0-----0-----0------0---0----|
E|-----------------------------------|
e|-----------------------------------| B|-----------------------------------| G|----5------5-----5-----5-----------| D|--3------3-----3-----3-----3--3----| A|-----------------------------------| E|-6-----6-----6-----6-----6--6------|

Leave a Reply

Loading...