49 Winchester – Russell County Line Intro Tab

On the 18th of March 2022.

Key Info

  • Tuning: Standard(E A D G B e)
  • Key: D
Russell County Line

Track Info

  • Song: Russell County Line
  • Artist: 49 Winchester
  • Release Date: March 18, 2022
[Intro]
 
e|---3-3-------------3-3-------------33333---33333---|
B|---2-2-------------2-2-------------33333---33333---|
G|---3-3-------------3-3-------------44444---44444---|
D|--0----4-2-0---0-2-----4-2-0-2-4/5-55555---55555---|  
A|-------------2---------------------55555---55555---|
E|-----------------------------------33333-3-33333---|

e|---3-3-------------3-3-------------33333---33333---|
B|---2-2-------------2-2-------------33333---33333---|
G|---3-3-------------3-3-------------44444---44444---|
D|--0----4-2-0---0-2-----4-2-0-2-4/5-55555---55555---|
A|-------------2---------------------55555---55555---|
E|-----------------------------------33333-3-33333---|
============== | / Slide up ==============

 

Leave a Reply


Scroll to Top