5 Seconds Of Summer – Complete Mess tab Intro

The song was released on the 2nd of March 2022, Produced by Michael Clifford. The track is on the

5 Seconds Of Summer - Complete Mess tab Intro 1

Song Info

Key Info 

  • Tuning: Standard (E A D G B E)
  • Key: G
  • BPM: 81
[Intro]
 
e|-----------------------------------------------------------------------|
B|-----------------------------------------------------------------------|
G|-----------------------------------------------------------------------|
D|----4----4----4----4----4------10-----10-----10-----10-----10-------9--|
A|---5----5----5----5----5-----10-----10-----10-----10-----10-------10---|
E|--5----5----5----5----5-----8------8------8------8------8-------10-----|
 
e|-----------------------------------------------------------------------|
B|-----------------------------------------------------------------------|
G|-----------------------------------------------------------------------|
D|------9------9------9------9-----4----4----4----4----4-----------------|
A|----10-----10-----10-----10-----5----5----5----5----5------------------|
E|--10-----10-----10-----10------5----5----5----5----5-------------------|




COMPLETE MESS CHORDS BY 5 SECONDS OF SUMMER

Leave a Comment

Your email address will not be published.


Scroll to Top