AAJ EI DIN TAKE INTRO TAB | Kishore Kumar | Antarale

Aaj Ei Din Take Intro Tab by Kishore Kumar

Learn to play “Aaj Ei Din Take Intro Tab” by Kishore Kumar

Intro

E|-------------8------------------------------|
B|----10---8-8------8-----8-10--10---8-10-11--|
G|--7---10--------9--9-10------7--10----------|
D|--------------------------------------------|
A|--------------------------------------------|
E|--------------------------------------------|


E|8-8-10-12-10-8----------------8-------------|
B|--------------11-10-8-10-9-10---------------|
G|--------------------------------------------|
D|--------------------------------------------|
A|--------------------------------------------|
E|--------------------------------------------|


E|----------------------------------|
B|----------------------------------|
G|10--9-7----7-9--10-10-9-7------7-9|
D|--------10---------------10-10----|
A|----------------------------------|
E|----------------------------------|

You may like to play
Aaj Ei Dintake Chords

Aaj Ei Dintake Track Info

This Post Has One Comment

  1. Uttam Paul

    Pls sir provide full song as u have given intro part.

Leave a Reply

Loading...