Adie – Paraluman Intro tab

On the 21st of March 2021, the track was released produced by Kean Cipriano & Adrian Garcia. The track was written by Adrian Garcia. The key of the track is F major.

Paraluman Intro-tab

Track Info

  • Tuning: (EADGBE)
  • Key: F
  • BPM: 90
  • Capo: 5th
 
[Intro]
  C
e|----------------------------------------|
B|-----1-0-------0-1-------1-0------------|
G|--------0---------0---------0------0----|
D|---2---------2---------2---------2------|
A|-3---------3---------3---------3--------|
E|----------------------------------------|
 
          Am
e|----------------------------------------|
B|-------------1-0------0-1------1-0------|
G|-----0----------0--------0--------0-----|
D|---0-------2---------2--------2---------|
A|-2-------0---------0--------0-----------|
E|----------------------------------------|
 
   Am        G       F
e|----------------------------------------|
B|---------------------1-0-----0-1--------|
G|-----0--------0---------0-------0-------|
D|---2--------0-----0---------0-----------|
A|-0--------------------------------------|
E|----------3------1---------1------------|
 
   F                     C
e|----------------------------------------|
B|---1-0----------------------1-0---------|
G|------0-----0-------0----------0--------|
D|--0-------0-------0-------2-------------|
A|------------------------3---------------|
E|-1-------1------3-----------------------|
 
  C           C*
e|----------------------------------------|
B|-----0-1-----1--------------------------|
G|--------0----0--------------------------|
D|---2---------2--------------------------|
A|-3-----------3--------------------------|
E|----------------------------------------|

*one stroke

Leave a Reply

Loading...