Adie – Tahanan tab

Tahanan

Track Info

  • Song: Tahanan
  • Aertist: Adie
[Intro]
        C                       Em                              F
e|---------------0----|--------------------|--------------------0h1-----0-------|
B|-1--------1--3------|-0-------0--1--3----|-------------1----------------3-----|
G|--------------------|-----0--------------|-2-------2--------------2-----------|
D|-----2--------------|--------------------|-------3---------3------------------|
A|-3------3-----------|---2---2------------|----0------0---0---------0-----0----|
E|--------------------|--------------------|------------------------------------|
 
[Verse 1]
        C                       Em                              F
e|---------------0----|--------------------|--------------------0h1-----0-------|
B|-1--------1--3------|-0-------0--1--3----|-------------1----------------3-----|
G|--------------------|-----0--------------|-2-------2--------------2-----------|
D|-----2--------------|--------------------|-------3---------3------------------|x3
A|-3------3-----------|---2---2------------|----0------0---0---------0-----0----|
E|--------------------|--------------------|------------------------------------|
 
        C                       Em                              F
e|---------------0----|--------------------|-----------------------1------------|
B|-1--------1--3------|-0-------0--1--3----|-------------1---------1------------|
G|--------------------|-----0--------------|-2-------2-------------2------------|
D|-----2--------------|--------------------|-------3---------3-----3------------|
A|-3------3-----------|---2---2------------|----0------0---0-------3------------|
E|--------------------|--------------------|-----------------------1------------|
 
        C                       Em                              F
e|---------------0----|--------------------|--------------------0h1-----0-------|
B|-1--------1--3------|-0-------0--1--3----|-------------1----------------3-----|
G|--------------------|-----0--------------|-2-------2--------------2-----------|
D|-----2--------------|--------------------|-------3---------3------------------|
A|-3------3-----------|---2---2------------|----0------0---0---------0-----0----|
E|--------------------|--------------------|------------------------------------|
 
        C                       Em                              F
e|---------------0----|-3-------3/6--3--0--|-----------------0------------------|
B|-1--------1--3------|--------------------|-1-------1-------1------------------|
G|--------------------|-----0--------------|-----------------2------------------|
D|-----2--------------|--------------------|-------3---------3------------------|
A|-3------3-----------|---2---2------------|----0------0-----0------------------|
E|--------------------|--------------------|-----------------x------------------|


[Instrumental]
         C                      Em                              F
e|---------------0----|--------------------|-----------------------0-----------|
B|-1--------1--3------|-0-------0--1--3----|-------------1---------1-----------|
G|--------------------|-----0--------------|-2-------2-------------2-----------|
D|-----2--------------|--------------------|-------3---------3-----3-----------|
A|-3------3-----------|---2---2------------|----0------0---0-------0-----------|
E|--------------------|--------------------|-----------------------x-----------|
 
[Verse 2]
         C                      Em                              F
e|---------------0----|--------------------|--------------------0h1-----0-------|
B|-1--------1--3------|-0-------0--1--3----|-------------1----------------3-----|
G|--------------------|-----0--------------|-2-------2--------------2-----------|
D|-----2--------------|--------------------|-------3---------3------------------|x3
A|-3------3-----------|---2---2------------|----0------0---0---------0-----0----|
E|--------------------|--------------------|------------------------------------|
 
         C                      Em                              F
e|---------------0----|-3-------3/6--3--0--|-----------------0------------------|
B|-1--------1--3------|--------------------|-1-------1-------1------------------|
G|--------------------|-----0--------------|-----------------2------------------|
D|-----2--------------|--------------------|-------3---------3------------------|
A|-3------3-----------|---2---2------------|----0------0-----0------------------|
E|--------------------|--------------------|-----------------x------------------|
 
         C                      Em                              F
e|---------------0----|--------------------|--------------------0h1-----0-------|
B|-1--------1--3------|-0-------0--1--3----|-------------1----------------3-----|
G|--------------------|-----0--------------|-2-------2--------------2-----------|
D|-----2--------------|--------------------|-------3---------3------------------|
A|-3------3-----------|---2---2------------|----0------0---0---------0-----0----|
E|--------------------|--------------------|------------------------------------|
 
         C                      Em                              F
e|---------------0----|-3-------3/6--3--0--|-----------------0------------------|
B|-1--------1--3------|--------------------|-1-------1-------1------------------|
G|--------------------|-----0--------------|-----------------2------------------|
D|-----2--------------|--------------------|-------3---------3------------------|
A|-3------3-----------|---2---2------------|----0------0-----0------------------|
E|--------------------|--------------------|-----------------x------------------|

Leave a Comment

Your email address will not be published.


Scroll to Top