Alex G ((Sandy) Alex G) – Mary Tab

On the 2nd of November 2012, the track was released and produced by Alex G.

Chords Info

  • Tuning: Standard(E A D G B e)
  • BPM: 106
  • Key: Em
Mary

Track Info

  • Song: Mary
  • Artist: Alex G
  • Produced by Alex G
  • Release Date: November 2, 2012
 [INTRO]
e|---------------------------------------­----------|
B|---------------------------------------­----------|
G|---11--11--------------11--11-------------­-------|
D|----9---9-------9--9---9----9-------9----9-9--­---| x4
A|---10--10-------7--7--10--10--------7----7-7-----|
E|----------------8--8----------------8---­-8-8-----|
 
 
 [VERSE] 
e|---------------------------------------­-----------------|
B|---7-----------------------------------­-----------------|
G|---7-----------------------------------­-----------------|
D|---5----------7-9-------------0------4-­-----0------4----|
A|---7------5---------7-------2------2---­---2------2------|
E|--------7---------------8/3------0-----­-3------0--------|
..........i wanna.........big...eyes..........lips shes the
 
e|---------------------------------------­|
B|---------------------------------------|
G|---11--11-----------11--11-------------|
D|----9----9----9--9---9---9-----9-------| x2
A|---10--10-----7--7--10--10-----7-------|
E|--------------8--8-------------8-------|
.......on-ly girl thatI wana love
 
 
 [BREAK]
e|-----3-----5-----5-----8-------7------7­--6--5------5-5--6-7---------|
B|-----3-----6-----5-----8-------8------7­--6--5------5-5--6-7---------|
G|-----4-----7-----5-----9-------9------7­--6--5------5-5--6-7---------|
D|-----5-----7-----7----10-------9------9-­-8--7------7-7--8-9---------|
A|-----5-----5-----7----10-------7------9-­-8--7------7-7--8-9---------|
E|-----3-----5-----5-----8-------7------7­--6--5------5-5--6-7---------|
.......G...Dm..Am...C......Em...Bm.....
 
 
 [BRIDGE]
e|----9--------9------7-------7-------9-­-------9--------7-----|
B|---10-------10------7-------7-------10----­--10--------7-----|
G|---11-------11------7-------7-------11----­--11--------7-----|
D|---11-------11------9-------9-------11----­--11--------9-----|
A|----9--------9------9-------9-------9--­------9--------9-----|
E|----9--------9------7-------7-------9--­------9--------7-----|
.........F#m...........Bm..............F#m........Bm
 
 
 [CHORUS]
e|----10-------10-------5-------8--------­--------------|
B|----10-------10-------5-------8--------­--------------|
G|----12-------11-------6-------9--------­--------------|
D|----12-------12-------7------10--------­--------------|
A|----10-------12-------7------10--------­--------------|
E|----10-------10-------5-------8--------­--------------|
.....listen....baby...I do-..mind i wanna... (repeat)
 
 
 [BRIDGE BACK TO BREAK] 
e|-----7-7-----7--6--5------5-5--6-7------­---|
B|-----8-8-----7--6--5------5-5--6-7------­---|
G|-----9-9-----7--6--5------5-5--6-7------­---|
D|-----9-9-----9--8--7------7-7--8-9------­---| x2
A|-----7-7-----9--8--7------7-7--8-9------­---|
E|-----7-7-----7--6--5------5-5--6-7------­---|
tiii--iime
 
 
 [BREAK]
e|-----3-----5-----5-----8-------7------7­--6--5------5-5--6-7---------|
B|-----3-----6-----5-----8-------8------7­--6--5------5-5--6-7---------|
G|-----4-----7-----5-----9-------9------7­--6--5------5-5--6-7---------|
D|-----5-----7-----7----10-------9------9-­-8--7------7-7--8-9---------|
A|-----5-----5-----7----10-------7------9-­-8--7------7-7--8-9---------|
E|-----3-----5-----5-----8-------7------7­--6--5------5-5--6-7---------|
 
 
 [BRIDGE]
e|----9--------9------7-------7-------9-­-------9--------7-----|
B|---10-------10------7-------7-------10----­--10--------7-----|
G|---11-------11------7-------7-------11----­--11--------7-----|
D|---11-------11------9-------9-------11----­--11--------9-----|
A|----9--------9------9-------9-------9--­------9--------9-----|
E|----9--------9------7-------7-------9--­------9--------7-----|
.........F#m...........Bm..............F#m........Bm
 
 
 [CHORUS]
e|----10-------10-------5-------8--------­--------------|
B|----10-------10-------5-------8--------­--------------|
G|----12-------11-------6-------9--------­--------------|
D|----12-------12-------7------10--------­--------------|
A|----10-------12-------7------10--------­--------------|
E|----10-------10-------5-------8--------­--------------|
 
 
 [BRIDGE BACK TO BREAK] 
e|-----7-7-----7--6--5------5-5--6-7------­---|
B|-----8-8-----7--6--5------5-5--6-7------­---|
G|-----9-9-----7--6--5------5-5--6-7------­---|
D|-----9-9-----9--8--7------7-7--8-9------­---| x2
A|-----7-7-----9--8--7------7-7--8-9------­---|
E|-----7-7-----7--6--5------5-5--6-7------­---|
 
 
 [BREAK]
e|-----3-----5-----5-----8-------7------7­--6--5------5-5--6-7---------|
B|-----3-----6-----5-----8-------8------7­--6--5------5-5--6-7---------|
G|-----4-----7-----5-----9-------9------7­--6--5------5-5--6-7---------|
D|-----5-----7-----7----10-------9------9-­-8--7------7-7--8-9---------|
A|-----5-----5-----7----10-------7------9-­-8--7------7-7--8-9---------|
E|-----3-----5-----5-----8-------7------7­--6--5------5-5--6-7---------| 
 
 
 [BRIDGE]
e|----9--------9------7-------7-------9-­-------9--------7-----|
B|---10-------10------7-------7-------10----­--10--------7-----|
G|---11-------11------7-------7-------11----­--11--------7-----|
D|---11-------11------9-------9-------11----­--11--------9-----|
A|----9--------9------9-------9-------9--­------9--------9-----|
E|----9--------9------7-------7-------9--­------9--------7-----|
.........F#m...........Bm..............F#m........Bm
 
 
 [CHORUS]
e|----10-------10-------5-------8--------­--------------|
B|----10-------10-------5-------8--------­--------------|
G|----12-------11-------6-------9--------­--------------|
D|----12-------12-------7------10--------­--------------|
A|----10-------12-------7------10--------­--------------|
E|----10-------10-------5-------8--------­--------------|
 
 
 [BRIDGE BACK TO BREAK] 
e|-----7-7-----7--6--5------5-5--6-7------­---|
B|-----8-8-----7--6--5------5-5--6-7------­---|
G|-----9-9-----7--6--5------5-5--6-7------­---|
D|-----9-9-----9--8--7------7-7--8-9------­---| x2
A|-----7-7-----9--8--7------7-7--8-9------­---|
E|-----7-7-----7--6--5------5-5--6-7------­---|
 
 
 [VERSE] ('Mary is the girl that leaves you to rot...)
e|---------------------------------------­-----------------|
B|---7-----------------------------------­-----------------|
G|---7-----------------------------------­-----------------|
D|---5----------7-9-------------0------4-­-----0------4----|
A|---7------5---------7-------2------2---­---2------2------|
E|--------7---------------8/3------0-----­-3------0--------|
 
e|---------------------------------------­----------|
B|---------------------------------------­----------|
G|---11--11--------------11--11-------------­-------|
D|----9---9-------9--9---9----9-------9----9-9--­---|
A|---10--10-------7--7--10--10--------7----7-7-----|
E|----------------8--8----------------8---­-8-8-----|

If you like the work please write down your experience in the comment section, or if you have any suggestions/corrections please let us know in the comment section.

Leave a Reply


Scroll to Top