Arctic Monkeys – Body Paint Intro Tab

On the 29th of September 2022, the track was released, produced by James Ford from the album” The Car”.

Body Paint

Track Info

Chords Info

  • Tuning: Standard(E A D G B e)
  • Key: Gm
[Intro]
 
e|--13-------------15------13-------------|
B|-----15---------------15----15----------|
G|--------15-14-12---------------15-14-12-|
D|----------------------------------------|
A|----------------------------------------|
e|----------------------------------------|

e|15------13-------------15------13-------|
B|-----15----15---------------15----------|
G|--------------15-14-12------------------|
D|----------------------------------------|
A|----------------------------------------|
E|----------------------------------------|

Body Paint Chords Arctic Monkeys

How useful was this post?

Click on a star to rate it!

Average rating 0 / 5. Vote count: 0

No votes so far! Be the first to rate this post.

As you found this post useful...

Follow us on social media!

Leave a Reply


Scroll to Top