BAD GUY BASS TAB – Billie Eilish

Learn to play “Bad Guy Bass Tab” by Billie Eilish.
Easy Bass Guitar Tabs.

Bad Guy Track Info

  • Song: bad guy
  • Artist: Billie Eilish
  • Produced by FINNEAS
  • Album: WHEN WE ALL FALL ASLEEP, WHERE DO WE GO? (Japanese Import)

You may like
Bad Guy Chords Piano & Guitar – Billie Eilish

Verse 00:


G|---------------------------------------------|
D|---------------------------------------------|
A|---------------------------------------------|
E|-3--3-6-3--3-3--3-6-3-1-3--3-6-3-3--3-6-3-1--|


G|---------------------------|
D|---------------------------|
A|------------------------10-|
E|-8--8-11-8--8-8--8-11-8----|

G|---------------------------------|
D|---------------------------------|
A|---------------------------------|
E|-10--10-13-10--1--1--1-----------|

Verse – 0:14:

G|---------------------------------------------|
D|---------------------------------------------|
A|---------------------------------------------|
E|-3--3-6-3--3-3--3-6-3-1-3--3-6-3-3--3-6-3-1--|

G|---------------------------|
D|---------------------------|
A|------------------------10-|
E|-8--8-11-8--8-8--8-11-8----|

G|---------------------------------|
D|---------------------------------|
A|---------------------------------|
E|-10--10-13-10--1--1--1-----------|

G|---------------------------------------------|
D|---------------------------------------------|
A|---------------------------------------------|
E|-3--3-6-3--3-3--3-6-3-1-3--3-6-3-3--3-6-3-1--|

G|---------------------------|
D|---------------------------|
A|------------------------10-|
E|-8--8-11-8--8-8--8-11-8----|

G|---------------------------------|
D|---------------------------------|
A|---------------------------------|
E|-10--10-13-10--1-----------------|

Chorus – 0:42:

G|---------------------------------------------|
D|---------------------------------------------|
A|---------------------------------------------|
E|-3--3-6-3--3-3--3-6-3-1-3--3-6-3-3-3---------|

G|---------------------------|
D|---------------------------|
A|------------------------10-|
E|-8--8-11-8--8-8--8-11-8----|

G|---------------------------------|
D|---------------------------------|
A|---------------------------------|
E|-10--10-13-10--1-1---------------|

1:00

G|---------------------------------------------|
D|---------------------------------------------|
A|---------------------------------------------|
E|-3--3-6-3--3-3--3-6-3-1-3--3-6-3-3--3-6-3-1--|

G|---------------------------|
D|---------------------------|
A|------------------------10-|
E|-8--8-11-8--8-8--8-11-8----|

G|---------------------------------|
D|---------------------------------|
A|---------------------------------|
E|-10--10-13-10--1--1--1-----------|


Verse – 1:15:

No bass

1:28

G|---------------------------------------------|
D|---------------------------------------------|
A|---------------------------------------------|
E|-3--3-6-3--3-3--3-6-3-1-3--3-6-3-3--3-6-3-1--|

G|---------------------------|
D|---------------------------|
A|------------------------10-|
E|-8--8-11-8--8-8--8-11-8----|

G|---------------------------------|
D|---------------------------------|
A|---------------------------------|
E|-10--10-13-10--1-----------------|

Chorus – 1:42:

G|---------------------------------------------|
D|---------------------------------------------|
A|---------------------------------------------|
E|-3--3-6-3--3-3--3-6-3-1-3--3-6-3-3-3---------|

G|---------------------------|
D|---------------------------|
A|------------------------10-|
E|-8--8-11-8--8-8--8-11-8----|

G|---------------------------------|
D|---------------------------------|
A|---------------------------------|
E|-10--10-13-10--1--1--------------|

2:00

G|---------------------------------------------|
D|---------------------------------------------|
A|---------------------------------------------|
E|-3--3-6-3--3-3--3-6-3-1-3--3-6-3-3--3-6-3-1--|

G|---------------------------|
D|---------------------------|
A|------------------------10-|
E|-8--8-11-8--8-8--8-11-8----|

G|---------------------------------|
D|---------------------------------|
A|---------------------------------|
E|-10--10-13-10--1--1--1-----------|

G|---------------------------------------------|
D|---------------------------------------------|
A|---------------------------------------------|
E|-3--3-6-3--3-3--3-6-3-1-3--3-6-3-3--3-6-3-1--|

G|---------------------------|
D|---------------------------|
A|------------------------10-|
E|-8--8-11-8--8-8--8-11-8----|

G|---------------------------------|
D|---------------------------------|
A|---------------------------------|
E|-10--10-13-10--1--1--1-----------|

Leave a Reply

Loading...