Baloane De Sapun Tab by Omul cu Șobolani

Baloane De Sapun

Track Info

Key Info 

  • Tuning: Standard(EADGBE)
  • Key: C#m
  • BPM: 146
[Intro]
 
 
e|-----------------------------------------|
B|--------6-----4h6p4-------------5--------|
G|--6--------6---------6-------6-----6-----|
D|-----6------------------6--7-------------|
A|-----------------------------------------|
E|-----------------------------------------|
 
e|-----------------------------------------|
B|--------6-----4h6p4-------------5--------|
G|--6--------6---------6-------6--6--------|
D|-----6------------------6--7-------------|
A|-----------------------------------------|
E|-----------------------------------------|
 
[Verse 1]
 
e|-----------------------------------------|
B|-----4h5p4-------------------------------|
G|--6--------6--------6--6-----------------|
D|--6-----------6--7--7--7-----------------|
A|--4--------------7-----------------------|
E|-----------------5-----------------------|
 
[Verse 2]
 
e|-----------------------------------------|
B|--6--6--6--6--6--------5-----------------|
G|----6--6--6--6--6----6-6-----------------|
D|-----------------------------------------|
A|-----------------------------------------|
E|-----------------------------------------|
 
[Verse 3]
 
e|------------------------------------------------------|
B|------------------------------------------------------|
G|------------------------------------------------------|
D|--7-7-7--7---9-9-9--9---10-10-10--10---14--14--14--14-|
A|--7-7-7--7---9-9-9--9---10-10-10--10---14--14--14--14-|
E|--5-5-5--5---7-7-7--7---9--9--9---9----12--12--12--12-|
 
 
e|------------------------------------------------------|
B|------------------------------------------------------|
G|------------------------------------------------------|
D|--7-7-7--7--9-9-9--9---4-4-4-4-4-4-4-4-4-4------------|
A|--7-7-7--7--9-9-9--9---4-4-4-4-4-4-4-4-4-4------------|
E|--5-5-5--5--7-7-7--7---0-2-0-2-0-2-0-2-0-2------------|
 
 
 
[Bridge]
 
*fingerstyle*
 
e|-----------------------------------------|
B|--5--5--5--5--5--5--5--5--5--5--5--5--5--|
G|----6--6--6--6--6--6--6--6--6--6--6--6--6|
D|-----------------------------------------|
A|-----------------------------------------|
E|-----------------------------------------|
 
e|--------------------------------5--4-----|
B|--5--5--5--5--5--5--5--5--5--5-----------|
G|----6--6--6--6--6--6--6--6--6------------|
D|-----------------------------------------|
A|-----------------------------------------|
E|-----------------------------------------|
 
 
 
 
=================
 
| h   Hammer-on
| p   Pull-off
 
=================

Leave a Comment

Your email address will not be published.


Scroll to Top