Bandang Bapis – Kabilang Buhay Tab

Kabilang Buhay Tab

Kabilang Buhay Track Info

Solo Tab


e|---------7------4----------------------------------------------------------|
B|-----4-5----4-5-------4h5-5/9-9-9-7-9-7\5-5--------------------------------|
G|---------------------------------------------------------------------------|
D|---------------------------------------------------------------------------|
A|---------------------------------------------------------------------------|
E|---------------------------------------------------------------------------|

[Verse]

e|---------------------------------------------------------------------------|
B|---------------------------------------------------------------------------|
G|---------------------------------------------------------------------------|
D|---------6------6------6------6------6-------------------------------------|
A|-----4-4----4-4----4-4----4-4----4-4----4----------------------------------|
E|---------------------------------------------------------------------------|

e|---------------------------------------------------------------------------|
B|---------------------------------------------------------------------------|
G|---------------------------------------------------------------------------|
D|---------4------4------4------4------4-------------------------------------|
A|-----2-2----2-2----2-2----2-2----2-2----2----------------------------------|
E|---------------------------------------------------------------------------|

e|---------------------------------------------------------------------------|
B|---------------------------------------------------------------------------|
G|---------------------------------------------------------------------------|
D|---------2------2------2------2------2-------------------------------------|
A|-----0-0----0-0----0-0----0-0----0-0----0----------------------------------|
E|---------------------------------------------------------------------------|

e|---------------------------------------------------------------------------|
B|---------------------------------------------------------------------------|
G|---------------------------------------------------------------------------|
D|---------4------4------4------4------4-------------------------------------|
A|-----2-2----2-2----2-2----2-2----2-2----2----------------------------------|
E|---------------------------------------------------------------------------|

Repeat x3

Learn to play 
Kabilang Buhay Chords

[Refrain]

e|-------4---4---4---4---7---7---7---7---7---7---7---7---5---5---5---5-------|
B|-----5---5---5---5---5---5---5---5---7---7---7---7---4---4---4---4---------|
G|---------------------------------------------------------------------------|
D|---------------------------------------------------------------------------|
A|---------------------------------------------------------------------------|
E|---------------------------------------------------------------------------|

e|-----5--5-5-5-5-5-5-5------------------------------------------------------|
B|-----4--4-4-4-4-4-4-4------------------------------------------------------|
G|---------------------------------------------------------------------------|
D|---------------------------------------------------------------------------|
A|---------------------------------------------------------------------------|
E|---------------------------------------------------------------------------|

[Chorus]

e|---------7------4------4---------------------------------------------------|
B|-----4-5----4-5----4-5----4-5-5/7------------------------------------------|
G|---------------------------------------------------------------------------|
D|---------------------------------------------------------------------------|
A|---------------------------------------------------------------------------|
E|---------------------------------------------------------------------------|

e|---------7------4------4---------------------------------------------------|
B|-----4-5----4-5----4-5----4-4-4--------------------------------------------|
G|---------------------------------------------------------------------------|
D|---------------------------------------------------------------------------|
A|---------------------------------------------------------------------------|
E|---------------------------------------------------------------------------|

[Solo]

e|---------------------------------------------------------------------------|
B|-----/5-7-5-7-7/12-12-12-12-12-12-9-7--------------------------------------|
G|---------------------------------------------------------------------------|
D|---------------------------------------------------------------------------|
A|---------------------------------------------------------------------------|
E|---------------------------------------------------------------------------|

e|---------------------------------------------------------------------------|
B|-----5-7-5-7-7/9-9-9-9-10-9-9--7\5-5h7-7-----------------------------------|
G|---------------------------------------------------------------------------|
D|---------------------------------------------------------------------------|
A|---------------------------------------------------------------------------|
E|---------------------------------------------------------------------------|

e|-------------------12-------11-------14-------12-------12------------------|
B|-----5-7-5-7/12-12----12-12----12-12----12-12----12-12----12---------------|
G|---------------------------------------------------------------------------|
D|---------------------------------------------------------------------------|
A|---------------------------------------------------------------------------|
E|---------------------------------------------------------------------------|

e|-----------12-------11-------14-------12-------12-11-----------------------|
B|-----12-12----12-12----12-12----12-12----12-12-----------------------------|
G|---------------------------------------------------------------------------|
D|---------------------------------------------------------------------------|
A|---------------------------------------------------------------------------|
E|---------------------------------------------------------------------------|

e|-----11-11-11-12-12-12-12-14-14-12-12-12-11-12-----------------------------|
B|---------------------------------------------------------------------------|
G|---------------------------------------------------------------------------|
D|---------------------------------------------------------------------------|
A|---------------------------------------------------------------------------|
E|---------------------------------------------------------------------------|

e|-----12/19-17-16-16\12-12-12-12-12h14-12h14-14/16--------------------------|
B|---------------------------------------------------------------------------|
G|---------------------------------------------------------------------------|
D|---------------------------------------------------------------------------|
A|---------------------------------------------------------------------------|
E|---------------------------------------------------------------------------|

Learn to play 
Kabilang Buhay Chords

Leave a Comment

Your email address will not be published.


Scroll to Top