Better Call Saul Theme Intro Tab by Little Barrie/Misc Television

The track was released on the 6th of November 2015 for Better Call Saul: Season 1 (Original Television Soundtrack) (2015).

Better Call Saul Theme

Track Info

Key Info

  • Tuning: Standard( E A D G B e)
  • Key: A
 
      A      C#m      C                
e|----5~~------9--------8~~-----12-10------|
B|----5~~--7/9---9------8~~-----10----13b--|
G|----6~~--7/9----9~----9~~-----11---------|
D|----7~~---------------10~~----12---------|
A|-----------------------------------------|
E|-----------------------------------------|
 
      A      A7       E5 Palm muted
e|----5~~------9---------------------------|
B|----5~~-------8~~------------------------|
G|----6~~---/9-----------------------------|
D|----7~~----------------------------------|
A|--------------------2---2-2--------------|
E|--------------------0---0-0--------------|
 
     Rake
e|-----------------------------------------|
B|-----------------------------------------|
G|----9--8--7--5-----5-7-------------------|
D|----x------------------------------------|
A|----x---------6h7-------0-3br-0----------|
E|-----------------------------------------|
  
 
====================
| ~ Vibrato 
| / Slide up
| x Dead note
| h Hammer-on | br Bend release ===================

Leave a Comment

Your email address will not be published.


Scroll to Top