Billie EiIish – EVERYTHING I WANTED CHORDS

Everything I Wanted Chords by Billie Eilish

Learn to play “Everything I Wanted Chords” by Billie Eilish

Everything I Wanted Chords Info

  • Key: D
  • Chords: Dmaj7, E, C#m,
  • Suggested Strumming: D DU UD UD D DU

Chords Structures

Without CapoCapo: 2nd Fret
Dmaj7 – xx0222
E – 022100
C#m – x46654
Cmaj7 – x32000
D – xx0232
Bm – x24432

[Intro]

     Dmaj7      E       C#m      Dmaj7
e|-----------------|-----------------|--------------------|
B|---2--------0----|------------2----|-------0---2---3----|
G|---2---2----1----|---6--------2----|---2----------------|
D|---0--------2----|---6---6----0----|--------------------|
A|-----------------|---4-------------|--------------------|
E|------------0----|-----------------|--------------------|

   Dmaj7     E        C#m     Dmaj7
e|----------------|-----------------|---------------------|
B|--2--------0----|------------2----|---------------------|
G|--2---2----1----|---6---6----2----|---------------------|
D|--0--------2----|---6--------0----|---------------------|
A|----------------|---4-------------|---------------------|
E|-----------0----|-----------------|---------------------|

[Verse 1]


[Dmaj7]I had a dr[E]eam [C#m]I got everything I w[Dmaj7]anted
[Dmaj7]Not what you th[E]ink [C#m]And if I’m being h[Dmaj7]onest
It might have been a ni[Dmaj7]ghtmare [E]
To anyone who m[C#m]ight care [Dmaj7]
[Dmaj7]But I could f[E]ly
[C#m]So west above the g[Dmaj7]olden
[Dmaj7]Nobody cr[E]ied
N[C#m]obody even n[Dmaj7]oticed
I saw them standing [Dmaj7]right there [E]
Kinda thought they m[C#m]ight care [Dmaj7]

[Pre-Chorus]

[Dmaj7]I had a dr[E]eam
[C#m]I got everything I w[Dmaj7]anted
But [Dmaj7]when I wake up [E]I see
[C#m]You’re with [Dmaj7] me
When you [Dmaj7]say

[Chorus]

As long as I’[E]m here
[C#m]No one can [Dmaj7]hurt you
[Dmaj7]Don’t wanna l[E]ie here
[C#m]But you can l[Dmaj7]earn to
[Dmaj7]If I could ch[E]ange
The [C#7]way that you [Dmaj7]see yourself
[Dmaj7]You wouldn’t wonder w[E]hy here
[C#m]They don’t d[Dmaj7]eserve you

[Verse 2]

[Dmaj7]I tried to sc[E]ream
[C#m]When my head was under [Dmaj7]water
[Dmaj7]They called me w[E]eak
[C#m]Like I’m not just somebody’s d[Dmaj7]aughter
Could’ve been a ni[Dmaj7]ghtmare [E]
But it felt like they were r[C#m]ight there Dmaj7]
And it [Dmaj7]feels liek yesterday was a y[E]ear ago
But [C#m]I don’t wanna let an[Dmaj7]ybody know
Cause ev[Dmaj7]erybody wants something f[E]rom me now
And [C#m]I don’t want [Dmaj7]them down

[Pre-Chorus]

[Dmaj7]I had a dr[E]eam
[C#m]I got everything I w[Dmaj]anted
But [Dmaj7]when [E]I wake up I see
[C#m]You’re with [Dmaj7] me
When you [Dmaj7]say

[Chorus]


As long as I[E]‘m here
[C#m]No one can [Dmaj7]hurt you
[Dmaj7]Don’t wanna l[E]ie here
[C#m]But you can l[Dmaj7]earn to
[Dmaj7]If I could ch[E]ange
The [C#m]way that you [Dmaj7]see yourself
[Dmaj7]You wouldn’t wonder w[E]hy here
[C#m]They don’t [Dmaj7]deserve you

[Bridge]


[Dmaj7]If I knew it all [E]then
Would I do it a[C#m]gain
Would I do it a[Dmaj7]gain
[Dmaj7]If they knew what they s[E]aid
Would go straight to my [C#m]head
What would they say in[Dmaj7]stead

[Dmaj7]If I knew it all t[E]hen
Would I do it a[C#7]gain
Would I do it a[Dmaj7]gain
[Dmaj7]If they knew what they s[E]aid
Would go straight to my [C#m]head
What would they say in[Dmaj7]stead

[Outro]

    Dmaj7     E        C#m      Dmaj7 
e|-----------------|-----------------|--------------------|
B|---2--------0----|------------2----|-------0---2---3----|
G|---2---2----1----|---6--------2----|---2----------------|
D|---0--------2----|---6---6----0----|--------------------|
A|-----------------|---4-------------|--------------------|
E|------------0----|-----------------|--------------------|

Dmaj7 E C#m Dmaj7
e|----------------|-----------------|---------------------|
B|--2--------0----|------------2----|---------------------|
G|--2---2----1----|---6---6----2----|---------------------|
D|--0--------2----|---6--------0----|---------------------|
A|----------------|---4-------------|---------------------|

Song Credit

  • Song: everything i wanted
  • Artist: Billie Eilish
  • Produced by: FINNEAS
  • Album: BE2*

Leave a Reply

Loading...