Billie Eilish, Rosalía – Lo Vas A Olvidar Intro tab

Lo Vas A Olvidar Intro tab

Lo Vas A Olvidar Track Info

Learn to play
Lo Vas Olvidar Chords by Billie Eilish, Rosalia

e|------------2/3-2---0--------0(0)-----------------------------|
B|-----------------------3-1-0----------3------------------3(3)-|
G|--------------------------------------------0--2(2)-----------|
D|--------------------------------------------------------------|
A|-2(2)---------------------------------------------------------|
E|--------------------------------------------------------------|
 
e|-------0------------------------------------------------------|
B|-3(3)----3--1-0---------1--0----------------------3-----------|
G|---------------2-0(0)-----------------0-----------------------|
D|---------------------------------4----------------------------|
A|--------------------------------------------------------------|
E|--------------------------------------------------------------|
 
e|-7--0--0-3-3--(3)5---3---7-5-3----7-5-------------------------|
B|--------------------------------------------------------------|
G|--------------------------------------------------------------|
D|--------------------------------------------------------------|
A|--------------------------------------------------------------|
E|--------------------------------------------------------------|
 
 
 
*********************
 
| (n)  Ghost note
| /    Slide up
 
*********************

Learn to play
Lo Vas Olvidar Chords by Billie Eilish, Rosalia

Leave a Reply

Loading...