Billie Eilish – Your Power Intro Tab

  • Post category:Song
  • Post comments:0 Comments
  • Post last modified:April 30, 2021

FINNEAS produced this track released on the 29th of April 2021. The track is written by FINNEAS & Billie Eilish. The acoustic Guitar, synthesizer, Bass in this track is played by FINNEAS. The key of the track is A minor.

Your Power Tab

Track Info

[Intro]
   Fmaj7             Am       Em         Fmaj7             Am    G
e|-------------------------------------|-------------------------------------|
B|--13----12----5---6\5----8---0-------|--13----12----5---6\5----3---3/5-----|
G|-------------------------------------|-------------------------------------|
D|--14----12----5---7\5----9---0-------|--14----12----5---7\5----3---3/5-----|
A|-------------------------------------|-------------------------------------|
E|-------------------------------------|-------------------------------------|   
 
   Fmaj7             Am        Em        Fmaj7           Am    G
e|-------------------------------------|-------------------------------------|
B|--13----12----5---6\5----8---0-------|--/5--5---5---3---3----0-------------|
G|-------------------------------------|-----------------------0-------------|
D|--14----12----5---7\5----9---0-------|--/5------5---3----------------------|
A|-------------------------------------|-------------------------------------|
E|-------------------------------------|-----------------------3-------------|

Leave a Reply

Loading...