BRING ME THE HORIZON – Teardrops Tab

  • Post category:Tabs
  • Post comments:0 Comments
  • Post last modified:October 23, 2020

Teardrops Track Info

Key: Dm

D|-------------------------------------------------------------|
A|-------------------------------------------------------------| F|-------------------------------------------------------------| C|--2--2--2---5--5-5--5---10-10--10-10--10-10--10-10--7-7-7-7--| G|--2--2--2---5--5-5--5---10-10--10-10--10-10--10-10--7-7-7-7--| C|--2--2--2---5--5-5--5---10-10--10-10--10-10--10-10--7-7-7-7--|
D|-----------------------------------------------------------| A|-----------------------------------------------------------| F|-----------------------------------------------------------| C|--2--2--2---5--5-5--5---10-10--10-10--10--3--3-3--3-3-3-3--| G|--2--2--2---5--5-5--5---10-10--10-10--10--3--3-3--3-3-3-3--| C|--2--2--2---5--5-5--5---10-10--10-10--10--3--3-3--3-3-3-3--| GUITAR 2 D|--------------------------------------------------------| A|--------------------------------------------------------| F|--------------------------------------------------------| C|--2--2--2---0--0-0--0---7-7--7-7--7-7--7-7--10-10-9-12--| G|--2--2--2---0--0-0--0---7-7--7-7--7-7--7-7--10-10-9-12--| C|--2--2--2---0--0-0--0---7-7--7-7--7-7--7-7--10-10-9-12--| D|-----------------------------------------------------------------| A|-----------------------------------------------------------------| F|-----------------------------------------------------------------| C|--2--2--2---5--5-5--5---10-10--10-10--10-10--10-10--10-10-10-10--| G|--2--2--2---5--5-5--5---10-10--10-10--10-10--10-10--10-10-10-10--| C|--2--2--2---5--5-5--5---10-10--10-10--10-10--10-10--10-10-10-10--|
GUITAR 2  

D|-----------------------------------------12------------------10-----------------------------|
A|--12------12------12------12----12-12---------12---12-12--------12----12-12-----12----12-12-|
F|------9-------9-------9------9---------9------------------9--------9---------9-----9--9--9--|
C|--------------------------------------------------------------------------------------------|
G|--------------------------------------------------------------------------------------------|
C|--------------------------------------------------------------------------------------------|



SYNTHESIZER

D|------------------------------------------------------|
A|--9----10----12-12--12-12--12-12--12-12--10-10-10-10--|
F|--x----x-----x--x---x--x---x--x---x--x---x--x--x--x---| x4
C|--6----7-----9--9---9--9---9--9---9--9---7--7--7--7---|
G|------------------------------------------------------|
C|------------------------------------------------------|


VERSE
D|-----------------------------------------------------------------------------------------------|
A|-----------------------------------------------------------------------------------------------|
F|-----------------------------------------------------------------------------------------------|
C|-----------------------------------------------------------------------------------------------| x2
G|------------------------------------------2-2-2-2--3-3-3-3--3-3-3-5-5-5--3-3-3-3--3-3-3-5-5-5--|
C|--2-2-2-0-2---2-2-2-0-0-0--2-2-2-0-2--2-2------------------------------------------------------|




PRE VERSE GUITAR
D|-------------------------------------------10---------------------------|
A|--12---12-12---12-12----12-----12-12----12----12--12---12-12---12-12----|
F|-----9-------9-------9------9--------9---------------9-------9-------9--|
C|------------------------------------------------------------------------|
G|------------------------------------------------------------------------|
C|------------------------------------------------------------------------|


BASS

D|------------------------------------------------------------| A|------------------------------------------------------------| F|------------------------------------------------------------| C|------------------------------------------------------------| G|--3-3-3--3-3-3--3-3---5-5-5--5-5-5--2-2--3-3-3--3-3-3--3-3--| C|------------------------------------------------------------|


CHORUS (Guitar)  

D|-------------------------------------------------------------| A|-------------------------------------------------------------| F|-------------------------------------------------------------| C|--2--2--2---5--5-5--5---10-10--10-10--10-10--10-10--7-7-7-7--| G|--2--2--2---5--5-5--5---10-10--10-10--10-10--10-10--7-7-7-7--| C|--2--2--2---5--5-5--5---10-10--10-10--10-10--10-10--7-7-7-7--|

D|-----------------------------------------------------------| A|-----------------------------------------------------------| F|-----------------------------------------------------------| C|--2--2--2---5--5-5--5---10-10--10-10--10--3--3-3--3-3-3-3--| G|--2--2--2---5--5-5--5---10-10--10-10--10--3--3-3--3-3-3-3--| C|--2--2--2---5--5-5--5---10-10--10-10--10--3--3-3--3-3-3-3--|


D|--------------------------------------------------------|
A|--------------------------------------------------------|
F|--------------------------------------------------------|
C|--2--2--2---0--0-0--0---7-7--7-7--7-7--7-7--10-10-9-12--|
G|--2--2--2---0--0-0--0---7-7--7-7--7-7--7-7--10-10-9-12--|
C|--2--2--2---0--0-0--0---7-7--7-7--7-7--7-7--10-10-9-12--|


D|-----------------------------------------------------------| A|-----------------------------------------------------------| F|-----------------------------------------------------------| C|--2--2--2---5--5-5--5---10-10--10-10--10--3--3-3--3-3-3-3--| G|--2--2--2---5--5-5--5---10-10--10-10--10--3--3-3--3-3-3-3--| C|--2--2--2---5--5-5--5---10-10--10-10--10--3--3-3--3-3-3-3--|


SYNTHESIZER
D|------------------------------------------------------|
A|--9----10----12-12--12-12--12-12--12-12--10-10-10-10--|
F|--x----x-----x--x---x--x---x--x---x--x---x--x--x--x---| x4
C|--6----7-----9--9---9--9---9--9---9--9---7--7--7--7---|
G|------------------------------------------------------|
C|------------------------------------------------------|



VERSE (BASS)  
D|-----------------------------------------------------------------------------------------------|
A|-----------------------------------------------------------------------------------------------|
F|-----------------------------------------------------------------------------------------------|
C|-----------------------------------------------------------------------------------------------| x2
G|------------------------------------------2-2-2-2--3-3-3-3--3-3-3-5-5-5--3-3-3-3--3-3-3-5-5-5--|
C|--2-2-2-0-2---2-2-2-0-0-0--2-2-2-0-2--2-2------------------------------------------------------|



PRE CHORUS

D|-----------------------------------------------------------------------------------------------|
A|-----------------------------------------------------------------------------------------------|
F|-----------------------------------------------------------------------------------------------|
C|-----------------------------------------------------------------------------------------------|
G|--3-3-3--3-3-3-3--3-3-3-3-3-3-3--5-5-5--5-5-5-5--5-5-5-2-2-2-2--3-3-3-3-3-3-3-3-3-3-3-3-3-3-3--|
C|-----------------------------------------------------------------------------------------------|



CHORUS (GUITAR)

D|-------------------------------------------------------------| A|-------------------------------------------------------------| F|-------------------------------------------------------------| C|--2--2--2---5--5-5--5---10-10--10-10--10-10--10-10--7-7-7-7--| G|--2--2--2---5--5-5--5---10-10--10-10--10-10--10-10--7-7-7-7--| C|--2--2--2---5--5-5--5---10-10--10-10--10-10--10-10--7-7-7-7--|


D|-----------------------------------------------------------| A|-----------------------------------------------------------| F|-----------------------------------------------------------| C|--2--2--2---5--5-5--5---10-10--10-10--10--3--3-3--3-3-3-3--| G|--2--2--2---5--5-5--5---10-10--10-10--10--3--3-3--3-3-3-3--| C|--2--2--2---5--5-5--5---10-10--10-10--10--3--3-3--3-3-3-3--|


D|--------------------------------------------------------|
A|--------------------------------------------------------|
F|--------------------------------------------------------|
C|--2--2--2---0--0-0--0---7-7--7-7--7-7--7-7--10-10-9-12--|
G|--2--2--2---0--0-0--0---7-7--7-7--7-7--7-7--10-10-9-12--|
C|--2--2--2---0--0-0--0---7-7--7-7--7-7--7-7--10-10-9-12--|


D|-----------------------------------------------------------------|
A|-----------------------------------------------------------------|
F|-----------------------------------------------------------------|
C|--2--2--2---5--5-5--5---10-10--10-10--10-10--10-10--10-10-10-10--|
G|--2--2--2---5--5-5--5---10-10--10-10--10-10--10-10--10-10-10-10--|
C|--2--2--2---5--5-5--5---10-10--10-10--10-10--10-10--10-10-10-10--|



SYNTHESIZER

D|------------------------------------------------------|
A|--9----10----12-12--12-12--12-12--12-12--10-10-10-10--|
F|--x----x-----x--x---x--x---x--x---x--x---x--x--x--x---| x4
C|--6----7-----9--9---9--9---9--9---9--9---7--7--7--7---|
G|------------------------------------------------------|
C|------------------------------------------------------|


D|------------------------------------------------------------------------------------------------------|
A|-----------------------------------------------0-3-5--------------------------------------------------|
F|------------------------------------------------------------------------------------------------------|
C|-2-2--2----------------------------------------------3-6----------------------------------------------|
G|-2-2--2-------------------5--------5---------------------5---------------------5---------5------------|
C|-2-2--2--0-3-2--2--0-3-2----2-2--0---2-2--0-2--------------2--0-3-2--2--0-3-2----2-2--0----2-2--0-2-2-|


BREAKDOWN

D|------------------------------------------------------------------------------------------------------|
A|------------------------------------------------------------------------------------------------------|
F|------------------------------------------------------------------------------------------------------|
C|-3-6---------------------------------------------------3-6--------------------------------------------|
G|-----5------5--------------5---------5---------------------5------5-------------5--------5------------|
C|-------2--0---2--2--0-3-2----2-2--0----2-2--0-3-2-3-2--------2--0---2-2--0-3-2----2-2--0---2-2--0-2-2-|



BREAK
D|-------|
A|-------|
F|-------|
C|-2--2--|
G|-2--2--|
C|-2--2--|



CHORUS
D|----------------------------------------------------|
A|----------------------------------------------------|
F|----------------------------------------------------|
C|--2-2--2-2--5-5--5-5--10-10--10-10--10-10--7-7-7-7--|
G|--2-2--2-2--5-5--5-5--10-10--10-10--10-10--7-7-7-7--|
C|--2-2--2-2--5-5--5-5--10-10--10-10--10-10--7-7-7-7--|



D|--------------------------------------------------------|
A|--------------------------------------------------------|
F|--------------------------------------------------------|
C|--2-2--2-2--5-5--5-5--10-10--10-10--10-10--12-12-12-12--|
G|--2-2--2-2--5-5--5-5--10-10--10-10--10-10--12-12-12-12--|
C|--2-2--2-2--5-5--5-5--10-10--10-10--10-10--12-12-12-12--|


D|--------------------------------------------------|
A|--------------------------------------------------|
F|--------------------------------------------------|
C|--2-2--2-2--0-0--0-0--7-7--7-7--7-7--10-10-10-10--|
G|--2-2--2-2--0-0--0-0--7-7--7-7--7-7--10-10-10-10--|
C|--2-2--2-2--0-0--0-0--7-7--7-7--7-7--10-10-10-10--|



D|--------------------------------------------------------------------------|
A|--------------------------------------------------------------------------|
F|--------------------------------------------------------------------------|
C|--2-2--2-2--5-5--5-5--10-10-10-10-10-10-10-10-10-10-10-10-10-10-10-10-10--|
G|--2-2--2-2--5-5--5-5--10-10-10-10-10-10-10-10-10-10-10-10-10-10-10-10-10--|
C|--2-2--2-2--5-5--5-5--10-10-10-10-10-10-10-10-10-10-10-10-10-10-10-10-10--|



D|---------------------------------------------|
A|---------------------------------------------|
F|---------------------------------------------|
C|--2--2--2---5--5--5---10--10--10---7--7--7---| x3
G|--2--2--2---5--5--5---10--10--10---7--7--7---|
C|--2--2--2---5--5--5---10--10--10---7--7--7---|



D|-------------------------------------------------|
A|-------------------------------------------------|
F|-------------------------------------------------|
C|-------------------------------------------------|
G|--5--------5--------5-----5--------5-------------|
C|----2-2--0---2-2--0---2-----2-2--0---2-2--0-2-2--|

Leave a Reply

Loading...