Chainsaw Man Opening – Kick Back Bass Tab by Kenshi Yonezu (米津 玄師)

The track was released on the 12th of October 2022.

Chords Info

  • Tuning: Standard(E A D G)
  • BPM: 102
Kick Back Bass Tab

Track Info

[Intro]
 
G|------------------------------------------------------------------------------------|
D|------------------------------------------------------------------------------------|
A|---1---1-1-4-1---3-------0---0---0-1---1-1-4-1---3----------------------------------|
E|---------------------1---------3---------------------1---1--------------------------|
 
G|---------------------------------------------------------------14-------------------|
D|---------------------------------------------------------13/15----15----------------|
A|---1---1-1-4-1---3-------0---0---0-1---1-1-4-1---3----------------------------------|
E|---------------------1---------3---------------------1------------------------------|
 
G|------------------------------------------------------------------------------------|
D|------------------------------------------------------------------------------------|
A|---1---1-1-4-1---3-------0---0---0-1---1-1-4-1---3----------------------------------|
E|---------------------1---------3---------------------1---1--------------------------|
 
G|---------------------------------------------------------------14-------------------|
D|---------------------------------------------------------13/15----15-------15-------|
A|---1---1-1-4-1---3-------0---0---0-1---1-1-4-1---3-------------------13/15----15----|
E|---------------------1---------3---------------------1------------------------------|
 
[Verse]
 
G|------------------------------------------------------------------------------------|
D|---------------------------------------------------------------15-------------------|
A|---1---1-1-4-1---3-------0---0---0-1---1-1-4-1---3-------13/15----------------------|
E|---------------------1---------3---------------------1------------------------------|
 
G|------------------------------------------------------------------------------------|
D|------------------------------------------------------------------------------------|
A|---1---1-1-4-1---3-------0---0---0-1---1-1-4-1---3---2---1--------------------------|
E|---------------------1---------3-----------------------------2----------------------|
 
 
[Pre-Chorus]
 
G|------------------------------------------------------------------------------------|
D|---------------------------------------------7-6-5---0-2----------------------------|
A|-----------1---------------4---4-5---5-5-3-5----------------------------------------|
E|---3---3-3---3-4-5---5-5-5---5---------------------------1-3-3-3-5------------------|
 
G|------------------------------------------------------------------------------------|
D|------------------------------------------------------------------------------------|
A|---------------8-7-6---6---5--------------------------------------------------------|
E|---6---6-6-6-6-----------------4---3---3---3-3-3-3---3-3-3-3------------------------|
 
G|------------------------------------------------------------------------------------|
D|-----------------------------6-4----------------------------------------------------|
A|-------------------------4-6-----6-4-------6-------------2--------------------------|
E|---0-------2-------2-4-4---------------------------2-4-4---4------------------------|
 
G|------------------------------------------------------------------------------------|
D|---7-------9-------6----------------------------------------------------------------|
A|-------------------------6----------------------------------------------------------|
E|---------------------------4-------2---------------4--------------------------------|
 
 
[Chorus]
 
 
G|------------------------------------------------------------------------------------|
D|-------------------------------------------------------------6-5-4------------------|
A|---4---4-----6-7-----------------------------6---4---4------------------------------|
E|-----------------2---2-----2---2---4---4-------4------------------------------------|
 
 
G|------------------------------------------------------------------------------------|
D|---4---4---4---4-3-2---2------------------------------------------------------------|
A|-------------4-----------0-2---2-4-0---0-----0---2---2---2-3-3-3-3------------------|
E|------------------------------------------------------------------------------------|
 
 
G|------------------------------------------------------------------------------------|
D|-----------------------------------------------------6------------------------------|
A|---4---4-----6-7-----------------------6---------4-------6--------------------------|
E|-----------------2---2-----2---2---4---------4---------------4----------------------|
 
G|------------------------------------------------------------------------------------|
D|------------------------------------------------------------------------------------|
A|-------------------4---4-2-4-4-4-4-----------------4-4-4-4-4-4-4-4------------------|
E|---5---5---4---4-------------------5-5-5-5-4-4-4-4----------------------------------|
 
G|------------------------------------------------------------------------------------|
D|------------------------------------------------------------------------------------|
A|-----------3-3-3-3-4-4-4-4-4-4-4-4--------------------------------------------------|
E|---5-5-5-5--------------------------------------------------------------------------|
 
[Outro]
 
G|------------------------------------------------------------------------------------|
D|------------------------------------------------------------------------------------|
A|---1---1-1-4-1---3-------0---0---0-1---1-1-4-1---3----------------------------------|
E|---------------------1---------3---------------------1---1--------------------------|
 
G|------------------------------------------------------------------------------------|
D|------------------------------------------------------------------------------------|
A|---1---1-1-4-1---3-------0---0---0-1---1-1-4-1---3----------------------------------|
E|---------------------1---------3---------------------2---1---0----------------------|
 
 
===============
| /   Slide up
===============

Leave a Reply


Scroll to Top