Chand Mera Dil Tab – Hum Kisi se Kam Nahi

Chand Mera Dil Intro Tab

Chand Mera Dil Track Info

Scale: Dm

e-----------0----------------------------|

B-------------1-0------------------------|
G------------------0/2-0-----------------|
D------0-2---------------2-0-------------|
A--0-2-----------------------3-0---------|
E----------------------------------------|

e-----------0----------------------------|
B-------------1-0------------------------|
G------------------0/2-0-----------------|
D------0-2---------------2-0-------------|
A--0-2-----------------------3-0---------|
E----------------------------------------|

 

Leave a Comment

Your email address will not be published.


Scroll to Top