DDLJ – Tujhe Dekha To Ye Jana Sanam Tabs | Single String

Tujhe Dekha To Ye Jana Sanam Tab

Tujhe Dekha To Ye Jana Sanam Track Info

Key: Eminor

e---0-0-7-5-7-3--5--8-7----------|

B--------------------------------|
G--------------------------------|
D--------------------------------|

A--------------------------------|
E--------------------------------|

Tujhe dekha to ye jana sanam

E---0-0-7-5-7-3--5-3-2-----------|
B--------------------------------|
G--------------------------------|
D--------------------------------|
A--------------------------------|
E--------------------------------|

Pyar hota hai deewana sanam

E---0-0-7-5-7-3--5--8-7----------|
B--------------------------------|
G--------------------------------|
D--------------------------------|
A--------------------------------|
E--------------------------------|

Tujhe dekha to ye jana sanam

E---0-0-7-5-7-3--5-3-2-----------|
B--------------------------------|
G--------------------------------|
D--------------------------------|
A--------------------------------|
E--------------------------------|

Pyar hota hai deewana sanam


E--0-2----0-2----0-3-2-----------|
B------3------3------------------|
G--------------------------------|
D--------------------------------|
A--------------------------------|
E--------------------------------|

Ab yahan se kahan jayein hum

E--0-2----0-2---3-2-0------------|
B------3------3------------------|
G--------------------------------|
D--------------------------------|
A--------------------------------|
E--------------------------------|

Teri bahon mein mar jaayein hum


E---0-0-7-5-7-3--5--8-7----------|

B--------------------------------|
G--------------------------------|
D--------------------------------|
A--------------------------------|
E--------------------------------|

Tujhe dekha to ye jana sanam

E---0-0-7-5-7-3--5-3-2-----------|
B--------------------------------|
G--------------------------------|
D--------------------------------|
A--------------------------------|
E--------------------------------|

Pyar hota hai deewana sanam


E--0-2----0-2----0-3-2-----------|
B------3------3------------------|
G--------------------------------|
D--------------------------------|
A--------------------------------|
E--------------------------------|

Ab yahan se kahan jayein hum

E--2-3-5-10-8-7-3-5-7--5-3--2-0--|
B--------------------------------|
G--------------------------------|
D--------------------------------|
A--------------------------------|
E--------------------------------|

Teri baaahon mein mar jaayein hum

E---0-0-7-5-7-3--5--10-10--7-----|
B--------------------------------|
G--------------------------------|
D--------------------------------|
A--------------------------------|
E--------------------------------|

Tujhe dekha to ye jana sanaaaam



Verse
E--7--7-8-12-12\7--7-8-12-12\7---|
B--------------------------------|
G--------------------------------|
D--------------------------------|
A--------------------------------|
E--------------------------------|

Aankhein meri sapne tere

E--5-7-8--3-3-8-7----------------|
B--------------------------------|
G--------------------------------|
D--------------------------------|
A--------------------------------|
E--------------------------------|

Dil mera ye yaadein teri


E--7--7-8-12-12\7--7-8-12-12\7---|
B--------------------------------|
G--------------------------------|
D--------------------------------|
A--------------------------------|
E--------------------------------|

Ho mera hai kya sab kuch tera

E--5-7-8--3-3-8-7----------------|
B--------------------------------|
G--------------------------------|
D--------------------------------|
A--------------------------------|
E--------------------------------|

Jaan teri saansein teri


E--7-5-7--3-2-0--7-5-7--2-3-5----|
B--------------------------------|
G--------------------------------|
D--------------------------------|
A--------------------------------|
E--------------------------------|

Meri aankhon mein aan shoo teri aa gayi


E--5-5-5-10-10\8-8-10-8-7-5-3-2-0--|
B----------------------------------|
G----------------------------------|
D----------------------------------|
A----------------------------------|
E----------------------------------|

Muskurane lage saare gum

Leave a Reply

Loading...