Easy: Let Her Go Chords with Strumming by Passenger

Learn to play Let Her Go Chords with Strumming by Passenger.

Let Her Go Guitar Chords
Let ergo Chords,

Let Her Go Chords Info

  • Key: C
  • Capo: 7th Fret
  • Chords(With Capo): F, G, Am, C, Em
  • Suggested Strumming: DU DU DU DU

Let Her Go Chords Structures w/wo Capo

Capo – 7th Fret ( F )Without Capo ( C )
F – 133211
G – 320003
Am – x02210
C – x32010
Em – 022000
C – x32010
D – x00232
Em – 022000
G – 320003
Bm – x24432

[ Let Her Go Intro Tab]


G F G Am G F G Am
e|-----0-------------------0-----0----------------0-------0-------------------3p0-------0---|
B|--3-----3--1-------1--------3-----3--1------1-----3--3----3--1-------1----1------1h3--1---|
G|--------------0h2--2--2----------------0h2----0-----------------0h2--2--2-----------------|
D|-------------------3-------------------------------------------------3--------------------|
A|--------------------------------------------0-----------------------------------------0---|
E|----------------------------3---------------------3--3---------------------------3--------|

G F G Am G F G Am
e|-----0-------------------0-----0----------------0--------0-------------------3p0-------0--|
B|--3-----3--1-------1--------3-----3--1------1------3--3----3--1-------1----1------1h3--1--|
G|--------------0h2--2--2----------------0h2----0------------------0h2--2--2----------------|
D|-------------------3--------------------------------------------------3-------------------|
A|--------------------------------------------0------------------------------------------0--|
E|--3-------------------------3----------------------3--3---------------------------3-------|

[Chorus]

                        F                           C
Well, you only need the light when it's burning low
G Am
Only miss the sun when it starts to snow
F C G
Only know you love her when you let her go
F C
Only know you've been high when you're feeling low
G Am
Only hate the road when you're missin' home
F C
Only know you love her when you let her go
G
And you let her go

[Instrumental]


Am F G Em
Am F G

[Verse 1]


Am F
Staring at the bottom of your glass
G Em
Hoping one day you'll make a dream last
Am F G
But dreams come slow and they go so fast
Am F
You see her when you close your eyes
G Em
Maybe one day you'll understand why
Am F G
Everything you touch surely dies

[Chorus]


F C
But you only need the light when it's burning low
G Am
Only miss the sun when it starts to snow
F C G
Only know you love her when you let her go
F C
Only know you've been high when you're feeling low
G Am
Only hate the road when you're missin' home
F C G
Only know you love her when you let her go

[Verse 2]


Am F
Staring at the ceiling in the dark
G Em
Same old empty feeling in your heart
Am F G
'Cause love comes slow and it goes so fast
Am F
Well you see her when you fall asleep
G Em
But never to touch and never to keep
Am
'Cause you loved her too much
F G
And you dived too deep

[Chorus]


F C
Well, you only need the light when it's burning low
G Am
Only miss the sun when it starts to snow
F C G
Only know you love her when you let her go
F C
Only know you've been high when you're feeling low
G Am
Only hate the road when you're missin' home
F C G
Only know you love her when you let her go

[Bridge]


Am
And you let her go
F G
Ooooo ooooo oooooo
Am
And you let her go
F G
Ooooooo ooooo ooooo
Am F G Em
And you let her go

[Interlude]

Am    F    G

[Chorus]


F C
'Cause you only need the light when it's burning low
G Am
Only miss the sun when it starts to snow
F C G
Only know you love her when you let her go
F C
Only know you've been high when you're feeling low
G Am
Only hate the road when you're missin' home
F C G
Only know you love her when you let her go

[Chorus]

                         F                         C
'Cause you only need the light when it burning low
G Am
Only miss the sun when it starts to snow
F C G
Only know you love her when you let her go
N.C.
Only know you've been high when you're feeling low

Only hate the road when you're missin' home

Only know you love her when you let her go

And you let her go

Track Info

  • Song: Let Her Go
  • Artist: Passenger
  • Produced by Passenger & Chris Vallejo
  • Album: All the Little Lights

Video

Leave a Reply

Loading...