Ego Fauzy – Runway bass tab feat. Paulie Garand and Lvcas Dope

Runway Chords

Track Info

Key Info

  • Tuning: (DADG)
  • Key: C
[Chorus]
 
G|----------------------------------------|
D|----------------------------------------|
A|0---0-3---3---------0---0-3---3---------|
D|------------3---0---------------3---0---|
 
 
[Verse 1]
 
G|----------------------------------------|
D|----------------------------------------|
A|0---0-3---3---------0---0-3---3---------|
D|------------3---0---------------3---0---|
 
 
[Chorus]
 
G|----------------------------------------|
D|----------------------------------------|
A|0---0-3---3---------0---0-3---3---------|
D|------------3---0---------------3---0---|
 
 
[Verse 2]
 
G|----------------------------------------|
D|----------------------------------------|
A|0---0-3---3---------0---0-3---3---------|
D|------------3---0---------------3---0---|
 
 
[Chorus]
 
G|----------------------------------------|
D|----------------------------------------|
A|0---0-3---3---------0---0-3---3---------|
D|------------3---0---------------3---0---|

Leave a Comment

Your email address will not be published.


Scroll to Top