FALLING INTRO TAB BY HARRY STYLES

Learn to play “Falling Intro Tab by Harry Styles” from the album Fine Line. Easy Guitar Intro Tab

Falling Intro Tab
Falling Intro Tab

Falling Key Info

  • Tuning: Standard ( EADGBE )
  • Key: E

Learn to play
Falling Chords Piano & Ukulele
Falling Chords (Easy)

[Intro]

e|-4-2-2-4-2-2-2-0-4-2-2-4-2-2-2-0-4-2-2-4-2-2-2-0-4-2-2-4-2-2-2-0--|
B|------------------------------------------------------------------|
G|------------------------------------------------------------------|
D|------------------------------------------------------------------|
A|----------------------------------4---------------4---------------|
E|-0----------------0-----------------------------------------------|
 
e|-4-2-2-4-2-2-2-0-4-2-2-4-2-2-2-0-4-2-2-4-2-2-2-0-4----------------|
B|------------------------------------------------------------------|
G|------------------------------------------------------------------|
D|------------------------------------------------------------------|
A|--2--------------0----------------0-------------------------------|
E|---------4--------------------------------------------------------|

Falling Track Info

  • Song: Falling
  • Artist: Harry Styles
  • Produced by: Kid Harpoon
  • Written By: Kid Harpoon & Harry Styles
  • Piano: Kid Harpoon
  • Electric Guitar: Leo Abrahams
  • Album: Fine Line

You may love to play
Falling Chords Piano & Ukulele
Falling Chords (Easy)
Fine Line Chords
Cherry Chords
To Be So Lonely Chords

Leave a Reply

Loading...