Former Hero – Returns To The Ocean Intro Tab

The track is in the key of D major.

Key Info

  • Tuning: Standard(E A D G B E)
  • BPM: 134
  • Key: D
  • Capo: No Capo
Returns To The Ocean Intro Tabvricks

Track Info

[Intro]
 
e|--2-------------|
B|----------------|
G|--------2p0-----|
D|----------------| x4
A|----------------|
E|----------------|
 
e|----------------|
B|--3-------------|
G|----------0-----|
D|--------4------4| x4
A|----------------|
E|----------------|
 
e|----------------|
B|--2-------------|
G|----------0-----|
D|--------4------4| x4
A|----------------|
E|----------------|
 
e|----------------|    
B|--0-------0-----|    
G|--------0------0|    
D|----------------| x2 
A|----------------|    
E|----------------|    
 
e|----------------|
B|0---------------|
G|----------------|
D|----------------|
A|----------------|
E|----------------|

================ | p Pull-off ================

Leave a Reply


Scroll to Top