Getting Older Tab by Billie Eilish

On the 30th of July 2021, the track was released produced by FINNEAS. The track is wHappritten by Billie Eilish & FINNEAS. The key of the track is Bb major.

Getting Older Tab

Track Info

Key Info

  • Key: Bb
[Intro]

e|------------------------------------|
B|---3---3---3---3---3---4---3---4----|
G|---3---3---3---3---3----------------|
D|---3-------------------3---3---3----|
A|------------------------------------|
E|------------------------------------|

e|-----------------------1------------|
B|---3---3---3---3---3-------4---3----|
G|---2---2---2---2---2----------------|
D|---3-------------------3---3---3----|
A|------------------------------------|
E|------------------------------------|

e|------------------------------------|
B|---3---3---3---3---3---3---3---3----|
G|---0---0---0---0---0----------------|
D|---0---------------3---3---3---3----|
A|------------------------------------|
E|------------------------------------|

e|------------------------------------|
B|------------------------------------|
G|---3---3---3---3---3---3---3---3----|
D|---1---1---1---1---1---1---0---0----|
A|---1--------------------------------|
E|------------------------------------|

🎸GETTING OLDER CHORDS
 

Leave a Comment

Your email address will not be published.


Scroll to Top