Harry Styles – As It Was Intro Tab

Tyler Johnson & Kid Harpoon produced this track was released on the 1st of April 2022. The track was written by Kid HarpoonTyler Johnson & Harry Styles.

As It Was Intro Tab

Track Info

Key Info 

  • Tuning: Standard(E A D G B E)
  • BPM:174
[Intro] 
 
e|-------9------------------------12-12-9---|
B|-10-12---12---12---12---12---10-----------|
G|------------------------------------------|
D|------------------------------------------|
A|------------------------------------------|
E|------------------------------------------|


---------9----------------------------------|
---10-12---12---12---12---12---10-12---10---|
--------------------------------------------| x2
--------------------------------------------|
--------------------------------------------|
--------------------------------------------|


AS IT WAS CHORDS Ver.1
AS IT WAS CHORDS Ver.2

How useful was this post?

Click on a star to rate it!

Average rating 0 / 5. Vote count: 0

No votes so far! Be the first to rate this post.

As you found this post useful...

Follow us on social media!

Leave a Reply


Scroll to Top