Harry Styles – Matilda Intro Tab

On the 20th of May 2022, the track was released, produced by Tyler Johnson & Kid Harpoon.

Matilda Tab

Track Info

Key Info 

  • Tuning: Standard(E A D G B e)
  • Key: D
  • BPM: 114
[Intro]
 
e|-------------t14--t9--|------------------------|
B|----------------------|--------------t14--t10--|
G|----------------------|------------------------|
D|-------0--------------|--------0---------------|
A|---0h2----------------|----0h2-----------------|
E|-5--------------------|--3---------------------|
 
e|-------------t14--t9--|------------------------|
B|----------------------|--------------t14--t10--|
G|----------------------|------------------------|
D|-------0--------------|--------0---------------|
A|---0h2----------------|----0h2-----------------|
E|-5--------------------|--3---------------------|
 
e|-------------t14--t9--|------------------------|
B|----------------------|--------------t14--t10--|
G|----------------------|------------------------|
D|-------0--------------|--------0---------------|
A|---0h2----------------|----0h2-----------------|
E|-5--------------------|--3---------------------|
 
e|-------------t14--t9--|------------------------|
B|----------------------|--------------t10-------|
G|----------------------|------------------------|
D|-------0--------------|--------0---------------|
A|---0h2----------------|----0h2-----------------|
E|-5--------------------|--3---------------------|
 
 play 
Matilda Chords ================= | h Hammer-on | t Tapping =================

Leave a Comment

Your email address will not be published.


Scroll to Top