HOTEL CALIFORNIA Intro Tab – Eagles

Learn to play Intro Tab of HOTEL CALIFORNIA by Eagles

[Intro]



e|----------------------------------------------------------|
B|---------3-------------------------2----------------------|
G|-----4-----4-----------3-------2-----2------------1-------|
D|---4---4-----4-----4---------2---2-----2------2-----------|
A|-2---------------4---4----0-----------------2---2---------|
E|---------------2-------------------------0----------------|

e|--------------------------2-------------------------------|
B|----------------------3-----------------------------------|
G|-----------0--------2---2------------0--------------3-----|
D|-------0------0---0--------------2-----2--------4---------|
A|-----2---2------2--------------2---2-----2----4---4-------|
E|--3--------------------------0-------------2--------------|

Track Info

  • Song: Hotel California
  • Artist: Eagles
  • Produced by Bill Szymczyk
  • Album: Hotel California
  • Guitars: Joe Walsh, Glenn Frey & Don Felder

Leave a Reply

Loading...