John Mayer – Last Train Home Tab

On the 4th of June 2021, the song is released, produced by Don Was & John Mayer. The track is also written by John Mayer. The song is on the E major key.

John Mayer - Last Train Home Tab

Track Info

[Intro]
 
e|-------------------------------------------------------|
B|-10--9~---10--9--7--9--5~---5-5-5~---------------------|
G|--9--9~----9--9--8--9--6~---4-4-6~---------------------|
D|-11--9~---11--9--9--9--7~---6-6-7~---------------------|
A|-----------------9-----7~-------7~---------------------|
E|-------------------------------------------------------|
 
e|-------------------------------------------------------|
B|-------------------------------------------------------|
G|-13pbr(11)--9~----11/13-11------9-9~---9---------------|
D|---------------------------9h11----------11p9----------|
A|----------------------------------------------11p9s7---|
E|-------------------------------------------------------|


*********************
| ~ Vibrato
| / Slide up
| h Hammer-on
| p Pull-off
| pbr Pre-bend release
**********************

Leave a Reply

Loading...