Joy Again – Looking Out For You bass tab

The song was released on the 16th of January 2021 produced by Caleb Laven.

Looking Out For You Bass Tab

Track Info

Key Info

  • Tuning: (E A D G)
  • Key: A
  • BPM: 101
[Intro]
 
G|---------------------------------------------4-2-1-----------------------------|
D|----------------------------------2-4--------------4-2-------------------------|
A|-------------------4--4--4-4--4-5------2-2-2------------4-4-4---4-4---4--------|
E|5--5--5-5--2-2-2-2--------------------------------------------4-----4----------|
 
[Verse]
 
G|-------------------------------------------------------------------------------|
D|----------------------------------2-4------------------------------------------|
A|-------------------4--4--4-4--4-5------2--2--2-2--2-2-2-2--4--4--4-4--4-4-4-4--|
E|5--5--5-5--2-2-2-2-------------------------------------------------------------|
 
G|---------------------------------------------4-2-1-----------------------------|
D|----------------------------------2-4--------------4-2-------------------------|X3
A|-------------------4--4--4-4--4-5------2-2-2------------4--4--4-4--4-4-4-4-----|
E|5--5--5-5--2-2-2-2-------------------------------------------------------------|
 
 
[Chorus]
 
G|--------------------------------------------------------------------------------|
D|--------------------------------------------------------------------------------|
A|5--5--5-5--4-4-4-4--2--2--2-2--2-2-2-2--5--5--5-5--4-4-4-4--2--2-----0-2-0-4-2-0|
E|-----------------------------------------------------------------0h2------------|
 
 
G|--------------------------------------------------------------------------------|
D|--------------------------------------------------------------------------------|
A|5--5--5-5--4-4-4-4--2--2--2-2--2-2-2-2--5--5--5-5--4-4-4-4----------------------|
E|------------------------------------------------------------0--0--0-0--0-0-0-0--|
 
 
[Outro]
 
G|---------------------------------------------------------------------------------|
D|----------------------------------2-4--------------------------------------------|
A|-------------------4--4--4-4--4-5------2--2--2-2--2-2-2-2--4--4----4-5-4--7-5-4--|
E|5--5--5-5--2-2-2-2-----------------------------------------------4--------------5|

***********
|h hammer
***********

Leave a Reply

Loading...