Joy Division – The Kill bass tab

The Kill Bass Tab

Track Info

[Intro] 
G|----------------------------------------| D|----------------------------------------| A|----------------------------------------| E|0707------------------------------------|
[Main Riff]
G|----------------------------------------| D|----------------------------------------| x6 A|----------------------------------------| E|07-77-77-07-77-77-05-55-55-05050505-----|
[Chorus]
G|----------------------------------------| D|-----------------------------5/12-121212| x2 A|-------------------------5-7------------| E|03-33-33-5-55-55-7-77-77----------------|

[Main Riff]
G|----------------------------------------|
D|----------------------------------------| x4
A|----------------------------------------|
E|07-77-77-07-77-77-05-55-55-05050505-----|

[Chorus] G|----------------------------------------|
D|-----------------------------5/12-121212| x2
A|-------------------------5-7------------|
E|03-33-33-5-55-55-7-77-77----------------|
[Main Riff]
G|----------------------------------------|
D|----------------------------------------| x8
A|----------------------------------------|
E|07-77-77-07-77-77-05-55-55-05050505-----|
[Chorus]
G|----------------------------------------|
D|-----------------------------5/12-121212| x4
A|-------------------------5-7------------|
E|03-33-33-5-55-55-7-77-77----------------|
[Main Riff]
G|----------------------------------------|
D|----------------------------------------| x2
A|----------------------------------------|
E|07-77-77-07-77-77-05-55-55-05050505-----|
G|--------| D|--------| A|--------| E|07------|

Leave a Reply

Loading...