KILL US INTRO TAB by Jessie Reyez

Learn to play “Kill Us Intro Tab” by Jessie Reyez from her album BEFORE LOVE CAME TO KILL US (Target Exclusive) released on 27th March 2020.

Kill Us Intro Tab
Kill Us Intro Tab

Kill Us Intro Tab

e|---------------------------------------------------------------------------|
B|---------------------------------------------------------------------------|
G|-----------------7-------------------------3-------------------------------|
D|-----------8----------8--------------5-----------5-------------------------|
A|--------8-----8----8-----8--------5----5------5----5-----------------------|
E|-----6--------------------------3------------------------------------------|

e|---------------------------------------------------------------------------|
B|---------------------------------------------------------------------------|
G|-----------------7-------------------------3-------------------------------|
D|-----------8----------8--------------5-------------------------------------|
A|--------8-----8----8-----8--------5----5------5----3h5--3------------------|
E|-----6--------------------------3------------------------------------------|

*h Hammer-on

KILL US Track Info

Leave a Reply

Loading...