Let Me Get Over Her Tab Intro by Dan + Shay

Dan Smyers & Scott Hendricks produced this track, released on the 13th of August 2021. The track is on the C major.

Let Me Get Over Her Tab

Track Info

Let Me Get Over Her Chords

[Intro Tab]


Open position

Dm C G Dm C G
E -----1-|-----0-|---------|-----1-|-----0-|---------|
B -------|-------|-------0-|-------|-------|-------0-|
G ---2---|---0---|-----0---|---2---|---0---|-----0---|
D -0-----|-------|---0-----|-0-----|-------|---0-----|
A -------|-3-----|---------|-------|-3-----|---------|
E -------|-------|-3-------|-------|-------|-3-------|
Hmmm mmm


5th Position


Dm C G Dm C G
E -------|-------|---------|-------|-------|---------|
B -----6-|-----5-|---------|-----6-|-----5-|---------|
G -------|-------|-------4-|-------|-------|-------4-|
D ---7---|---5---|-----5---|---7---|---5---|-----5---|
A -5-----|-3-----|---5-----|-5-----|-3-----|---5-----|
E -------|-------|-3-------|-------|-------|-3-------|
Hmmm mmm

Leave a Reply

Loading...