Ludo: Abaad Barbaad Tab – Arijit Singh

Abaad Barbaad Tab

Aabaad Barbaad Track Details

Learn to play
Abaad Barbaad Chords

e-------------------------------------------|
B-------------------------------------------|
G--4-4-5-7-5---4-----4----------------------|
D----------------7-5------------------------|
A-------------------------------------------|
E-------------------------------------------|
Ya to barbaad kar do

e-------------------------------------------|
B-------------------------------------------|
G--4-4-5-7-5---4-----4----------------------|
D----------------7-5------------------------|
A-------------------------------------------|
E-------------------------------------------|
Ya to barbaad kar do

e-------------------------------------------|
B-------------------------------------------|
G--4-4-5-7-5---4-----4----------------------|
D----------------7-5------------------------|
A-------------------------------------------|
E-------------------------------------------|
Ya phir aabaad kar do x2



e-------------------------------------------|
B----------------5--5----5-6-6--5-----5-----|
G--4-5-7--7--5-7-------5----------7-5----7--|
D-------------------------------------------|
A-------------------------------------------|
E-------------------------------------------|
Woh galat tha yeh sahi hai
Jhooth yeh aaj keh do

e--------------------------------------------|
B--------------------------------------------|
G--4-4-5-7-5---4-----4-----------------------|
D----------------7-5-------------------------|
A--------------------------------------------|
E--------------------------------------------|
Itna ehsaan kar do

e--------------------------------------------|
B--------------------------------------------|
G--4-4-5-7-5---4-----4-----------------------|
D----------------7-5-------------------------|
A--------------------------------------------|
E--------------------------------------------|
Itna ehsaan kar do



e--------------------------------------------|
B--------------------------------------------|
G--4-4-5-7-5---4-----4-----------------------|
D----------------7-5-------------------------|
A--------------------------------------------|
E--------------------------------------------|

Poore armaan kar do

e--------------------------------------------|
B----------------5--5----5-6--6--5-----5-----|
G--4-5-7--7--5-7-------5-----------7-5----7--|
D--------------------------------------------|
A--------------------------------------------|
E--------------------------------------------|

Lab pe aa kar jo ruke hain
Dhayi woh harf keh do


e-------------------------------------------|
B----7-8--8--8-8-8/10-9---------------------|
G--7----------------------------------------|
D-------------------------------------------|
A-------------------------------------------|
E-------------------------------------------|
Meri Saanson se judi hai

e-------------------------------------------|
B--6-5--------------------------------------|
G------7\5-5--9-7-5\4-----------------------|
D-------------------------------------------|
A-------------------------------------------|
E-------------------------------------------|
Meri har saans keh do

Mushkil asaan kar do....


#for full tab comments below
Ludo
Abaad Barbaad Chords
Meri Tum Ho Chords
Hardum Humdum Chords

This Post Has One Comment

  1. Anonymous

    full tabs pls

Leave a Reply

Loading...