MACHINE GUN KELLY – Concert For Aliens Intro Tabs

Travis Barker Produces “Concert For Aliens”, released on the 5th of August 2020 for the album Ticket To My Downfall. Here we can learn to play Intro Tabs of the song. Machine Gun Kelly also plays the guitar on this track.

Learn to play
Concert For Aliens Chords

e|--------------------------|--------------------------| 
B|--------------------------|--------------------------|
G|--6\8--3--4--6\8--3---4---|--6\8--6--4--6\8--6---4---|
D|--------------------------|--------------------------|
A|--4\6--1--2--4\6--1---2---|--4\6--4--2--4\6--4---2---|
E|--------------------------|--------------------------|

e|--------------------------|--------------------------|
B|--------------------------|--------------------------|
G|--6\8--3--4--6\8--3---4---|--6\8--6--4--6\8--6---4---|
D|--------------------------|--------------------------|
A|--4\6--1--2--4\6--1---2---|--4\6--4--2--4\6--4---2---|
E|--------------------------|--------------------------|

Learn to play
Concert For Aliens Chords

Track Info

Song: concert for aliens
Artist: Machine Gun Kelly
Produced by Travis Barker
Album: Ticket To My Downfall

Leave a Comment

Your email address will not be published.


Scroll to Top