MACHINE GUN KELLY – PLAY THIS WHEN IM GONE Chords And Tabs

Travis Barker produces the 15th track of the album “Ticket to My Downfall (Target Exclusive) (2020)“, released on the 25th of September 2020. The Guitar in this track is played by Machine Gun Kelly & Pearl Lion. The key to the track is A minor.

Chords Info

  • Tuning: Standard(EADGBE)
  • Key: Am
  • Chords: Am, F, G, C
  • Suggested Strumming: DU DU DU DU
    D= Down Stroke, U = Upstroke, N.C= No Chord
Guitar ChordsUkulele Chords
Am – x02210
F – 133211
G – 320003
C – x32010
Am – 2000
F – 2010
G – 0232
C – 0003

Intro Tabs


   C                                     Am
e|------------------------------------|------------------------------------|
B|--------5-------5-------5-------5---|--------5-------5-------5-------5---|
G|----5-------5-------5-------5-------|----5-------5-------5-------5-------|
D|------------------------------------|------------------------------------|
A|--3---3---3---3---3---3---3---3-----|--0---0---0---0---0---0---0---0-----|
E|------------------------------------|------------------------------------|
   G                                     F
e|------------------------------------|--------0---------------------------|
B|--------5-------5-------5-------5---|----------------3-------1-------0---|
G|----4-------4-------4-------4-------|----2-------2-------2-------2-------|
D|------------------------------------|------------------------------------|
A|------------------------------------|------------------------------------|
E|--3---3---3---3---3---3---3---3-----|--1---1---1---1---1---1---1---1-----|
 
[Chorus]
   C                G                   Am              F
e|------0-------0-------0-------0-----|------0-------0-------0-------0-----|
B|----1---1---1---1---1---1---1---1---|----1---1---1---1---1---1---1---1---|
G|------------------------------------|------------------------------------|
D|------------------------------------|------------------------------------|
A|--3-------3-------------------------|--0-------0-------------------------|
E|------------------3--------3--------|------------------1--------1--------|
[Intro]
C Am G F [Verse 1]
C Am I'm writing you this message just so I can say that I love you G F I had to let you know that everything about me was you, yeah C Am I think it's time for me to leave, but I'll never leave you G F I just looked at your pictures, so the last thing I did was see you
[Pre-Chorus]
C I'm 29, my anxiety's eating me alive Am I'm fightin' with myself and my sobriety every night G F And last time I couldn't barely open up my eyes, I apologize
[Chorus] C G Am F I'm not gonna lie and tell you, "It's alright, it's alright" C G Am F You're gonna cry and baby, that's alright, it's alright C G I wrote you this song to keep when I'm gone Am F If you ever feel alone C G Am F You're gonna cry and baby, that's alright, it's alright
[Interlude]
C
[Verse 2]
C                                                Am
  I hope you get to go to all the places that I showed you
G                                                 F
  When I was on the road and couldn't be home to hold you
C                                              Am
  Part of me doesn't want this cruel world to know you
      G                                           F
  So just try and keep in mind everything that I told you
 
[Pre-Chorus]
C I'm 29, and society's eating me alive Am I'm fighting what comes with this notoriety every night G F This is the last time I'll ever open up my eyes, I apologize
[Chorus]
C G Am F I'm not gonna lie and tell you, "It's alright, it's alright" C G Am F You're gonna cry and baby, that's alright, it's alright C G I wrote you this song to keep when I'm gone Am F If you ever feel alone C G Am F You're gonna cry and baby, that's alright, it's alright
[Bridge]
C G Am F And I'll miss you, I'll miss you, I'll miss you, I'll miss you, yeah C G Am F And I'll miss you, I'll miss you, I'll miss you, I'll miss you C G And I'll miss you (I'll miss you), I'll miss you (I'll miss you) Am F I'll miss you (I'll miss you), I'll miss you, yeah C G And I'll miss you (I'll miss you), I'll miss you (I'll miss you) Am F I'll miss you (I'll miss you), I'll miss you
[Outro]
C G Am F And I'll miss you, I'll miss you, I'll miss you, I'll miss you, yeah C G Am F And I'll miss you, I'll miss you, I'll miss you, I'll miss you

More of Machine Gun Kelly
Jawbreaker Chords
Kiss Kiss Chords

Play This When I’m Gone Track Info

Leave a Comment

Your email address will not be published.


Scroll to Top