Metallica – Master Of Puppets Tab

Flemming Rasmussen & Metallica produced this track which was released On the 3rd of March 1986. Kirk Hammett played the lead guitar in this track and the rhythm guitar was played by James Hetfield.

Master of Puppets

Track Info

Key Info 

  • Tuning: Standard(E A D G B e)
  • Key: Em
  • BPM: 105
[Intro]
 
e|--------------------------------|
B|--------------------------------|
G|--------------------------------|
D|-2-------12--11--10-------------|
A|-2-------12--11--10-------------|
E|-0-------10---9---8-------------|
 
 
e|--------------------------------------------------------------------|
B|--------------------------------------------------------------------|
G|--------------------------------------------------------------------|
D|-------------------12--11--10---------------------------------------|
A|-------------------12--11--10---------------------------------------|
E|-0-0-12-0-0-11-0-0-10---9---8-------0-0-7-0-0-6-0-0-5-0-4-0-3-0-2-1-| |x4
   PM-|   PM-|   PM-|                 PM-|  PM-|  PM-|  PM  PM  PM
 
e|-----------------------------------------------------------------|
B|-----------------------------------------------------------------|
G|-----------------------------------------------------------------|
D|-----------------------------------------------------------------|
A|-----2-----3-----4-----3-----2-2-----2-----3-----5\4---5\4---5\4-|
E|-0-1---0-1---0-1---0-1---0-1-----0-1---0-1---1-0-3\2-0-3\2-0-3\2-| |x2
   PM-|  PM-|  PM-|  PM-|  PM-|    PM-|  PM-|  PM-|
 
e|-----------------------------------------------------------------|
B|-----------------------------------------------------------------|
G|-------------------------------------------------------------4---|
D|-------------------------------------------------------------4---|
A|-----2-----3-----4-----3-----2-2-----2-----3-----4-----3-----2---|
E|-0-1---0-1---0-1---0-1---0-1-----0-1---0-1---0-1---0-1---0-1-----|
   PM-|  PM-|  PM-|  PM-|  PM-|    PM-|  PM-|  PM-|  PM-|  PM-|
 
e|-----------------------------------------------------------------|
B|-----------------------------------------------------------------|
G|-----------------------------------------------------------------|
D|-----------------------------------------------------------------|
A|-----2-----3-----4-----3-----2-2-----2-----3-----5\4---5\4---5\4-|
E|-0-1---0-1---0-1---0-1---0-1-----0-1---0-1---1-0-3\2-0-3\2-0-3\2-|
   PM-|  PM-|  PM-|  PM-|  PM-|    PM-|  PM-|  PM-|
 
e|-----------------------------------------------------------------|
B|-----------------------------------------------------------------|
G|-------------------------------------------------------------4---|
D|-------------------------------------------------------------4---|
A|-----2-----3-----4-----3-----2-2-----2-----3-----4-----3-----2---|
E|-0-1---0-1---0-1---0-1---0-1-----0-1---0-1---0-1---0-1---0-1-----|
   PM-|  PM-|  PM-|  PM-|  PM-|    PM-|  PM-|  PM-|  PM-|  PM-|
 
e|-----------------------------------------------------------------|
B|-----------------------------------------------------------------|
G|-----------------------------------------------------------------|
D|-----------------------------------------------------------------|
A|-----2-----3-----4-----3-----2-2-----2-----3-----5\4---5\4---5\4-|
E|-0-1---0-1---0-1---0-1---0-1-----0-1---0-1---1-0-3\2-0-3\2-0-3\2-|
   PM-|  PM-|  PM-|  PM-|  PM-|    PM-|  PM-|  PM-|
 
e|-----------------------------------------------------------------|
B|-----------------------------------------------------------------|
G|-----------------------------------------------------------------|
D|------------------2------8-----8-----8-----8-----8~--------------|
A|-5\4---5\4---5\4--2----7-----7-----7-----7-----7-----------------|
E|-3\2-0-3\2-0-3\2--0--0-----0-----0-----0-----0-------------------|
 
 
[Riff A]
 
e|--------------------------------------------------------|
B|--------------------------------------------------------|
G|--------------------------------------------------------|
D|--------------------------------------------------------|
A|-----------------5/7--8\7-5/7-----------------5/7--5/7--|
E|-0-0-0-0-0-0-0-0-3/5--6\5-3/5-0-0-0-0-0-0-0-0-3/5--3/5--| |x2
   PM-------------|             PM-------------|
 
 
[Verse]
 
e|--------------------------------------------------------|
B|--------------------------------------------------------|
G|--------------------------------------------------------|
D|--------------------------------------------------------|
A|-----------------5/7--8\7-5/7-----------------5/7--5/7--|
E|-0-0-0-0-0-0-0-0-3/5--6\5-3/5-0-0-0-0-0-0-0-0-3/5--3/5--| |x4
   PM-------------|             PM-------------|
 
e|--------------------------------------------------------|
B|--------------------------------------------------------|
G|--------------------------------------------------------|
D|-----------------4-4--5\4-4-4-----------------4----4----|
A|-----------------0-2--3\2-0-2-----------------0h2--0h2--|
E|-2-2-2-2-2-2-2-2--------------2-2-2-2-2-2-2-2-----------| |x2
   PM-------------|             PM-------------|
 
e|-----------------|
B|-----------------|
G|-4-4-4-4-4-4-4-4-|
D|-4-4-4-4-4-4-4-4-|
A|-2-2-2-2-2-2-2-2-|
E|-----------------|
 
 
[Pre-Chorus]
 
e|--------------------------------------------------------------------|
B|--------------------------------------------------------------------|
G|-9-------7--9------------------------------------------8------------|
D|-9-------7--9------9------------------10--9------------8--9---------|
A|-7-------5--7--7-9---10-9h10----------10--9------------6--9---------|
E|-0-0-0-0----------------------8-8-8-8-8---7----8-8-8-8----7---------| |x3
     PM---|                     PM----|          PM-----|
 
e|---------------------------------------------------------------------|
B|---------------------------------------------------------------------|
G|-9-------7--9--------------------------------------------------------|
D|-9-------7--9------9------------------10--9----------------2-2---3-3-|
A|-7-------5--7--7-9---10-9h10----------10--9--9-7-6--6------2-2---1-1-|
E|-0-0-0-0----------------------8-8-8-8-8---7-----------8-7--0-0---1-1-|
     PM---|                     PM-----|
 
e|--------------------------------------------------------------------|
B|--------------------------------------------------------------------|
G|------------------------------------------------------------------5-|
D|-------------------5------4-----2---7------5-----4----------9-----5-|
A|-2------4------5---3--0-0-2-0-0-0---5------3-----2---2------7-----3-|
E|-0--0-0-2--0-0-3-----------------------0-0---0-0-----0--0-0---0-0---|
      PM-|   PM-|       PM-|  PM-|       PM-|  PM-|       PM-|  PM-|
 
 
[Chorus]
 
e|-----------------------------------------------------------------|
B|-----------------------------------------------------------------|
G|----------------------------------5------------------------------|
D|-2--2----3--3---------------7-----5------------------------------|
A|-2--2----3--3--------2------5-----3--------2--2----3--3----------|
E|-0--0----1--1--------0--0-0---0-0----------0--0----1--1----------|
                          PM-|  PM-|
 
e|-----------------------------------------------------------------|
B|-----------------------------------------------------------------|
G|-------------------------------------------------------------4---|
D|-------------------------------------------------------------4---|
A|-----2-----3-----4-----3-----2-2-----2-----3-----4-----3-----2---|
E|-0-1---0-1---0-1---0-1---0-1-----0-1---0-1---0-1---0-1---0-1-----|
   PM-|  PM-|  PM-|  PM-|  PM-|    PM-|  PM-|  PM-|  PM-|  PM-|
 
e|-----------------------------------------------------------------|
B|-----------------------------------------------------------------|
G|-----------------------------------------------------------------|
D|-----------------------------------------------------------------|
A|-----2-----3-----4-----3-----2-2-----2-----3-----5\4---5\4---5\4-|
E|-0-1---0-1---0-1---0-1---0-1-----0-1---0-1---1-0-3\2-0-3\2-0-3\2-|
   PM-|  PM-|  PM-|  PM-|  PM-|    PM-|  PM-|  PM-|
 
e|-----------------|
B|-----------------|
G|-----------------|
D|-----------------|
A|-5\4---5\4---5\4-|
E|-3\2-0-3\2-0-3\2-|
 
 
[Verse]
 
e|--------------------------------------------------------|
B|--------------------------------------------------------|
G|--------------------------------------------------------|
D|--------------------------------------------------------|
A|-----------------5/7--8\7-5/7-----------------5/7--5/7--|
E|-0-0-0-0-0-0-0-0-3/5--6\5-3/5-0-0-0-0-0-0-0-0-3/5--3/5--| |x4
   PM-------------|             PM-------------|
 
e|--------------------------------------------------------|
B|--------------------------------------------------------|
G|--------------------------------------------------------|
D|-----------------4-4--5\4-4-4-----------------4----4----|
A|-----------------0-2--3\2-0-2-----------------0h2--0h2--|
E|-2-2-2-2-2-2-2-2--------------2-2-2-2-2-2-2-2-----------| |x2
   PM-------------|             PM-------------|
 
e|-----------------|
B|-----------------|
G|-4-4-4-4-4-4-4-4-|
D|-4-4-4-4-4-4-4-4-|
A|-2-2-2-2-2-2-2-2-|
E|-----------------|
 
 
[Pre-Chorus]
 
e|--------------------------------------------------------------------|
B|--------------------------------------------------------------------|
G|-9-------7--9------------------------------------------8------------|
D|-9-------7--9------9------------------10--9------------8--9---------|
A|-7-------5--7--7-9---10-9h10----------10--9------------6--9---------|
E|-0-0-0-0----------------------8-8-8-8-8---7----8-8-8-8----7---------| |x3
     PM---|                     PM----|          PM-----|
 
e|--------------------------------------------------------------------|
B|--------------------------------------------------------------------|
G|-9-------7--9-------------------------------------------------------|
D|-9-------7--9------9------------------10--9----------------2-2---3-3|
A|-7-------5--7--7-9---10-9h10----------10--9--9-7-6--6------2-2---1-1|
E|-0-0-0-0----------------------8-8-8-8-8---7-----------8-7--0-0---1-1|
     PM---|                     PM-----|
 
e|--------------------------------------------------------------------|
B|--------------------------------------------------------------------|
G|------------------------------------------------------------------5-|
D|-------------------5------4-----2---7------5-----4----------9-----5-|
A|-2------4------5---3--0-0-2-0-0-0---5------3-----2---2------7-----3-|
E|-0--0-0-2--0-0-3-----------------------0-0---0-0-----0--0-0---0-0---|
      PM-|   PM-|       PM-|  PM-|       PM-|  PM-|       PM-|  PM-|
 
 
[Chorus]
 
e|-----------------------------------------------------------------|
B|-----------------------------------------------------------------|
G|----------------------------------5------------------------------|
D|-2--2----3--3---------------7-----5------------------------------|
A|-2--2----3--3--------2------5-----3--------2--2----3--3----------|
E|-0--0----1--1--------0--0-0---0-0----------0--0----1--1----------|
                          PM-|  PM-|
 
[Bridge]
 
e|-----------------0h2p0-----3-------------------------------------------|
B|--------------3--------3-----------3---3-----0-----0-------0-------0---|
G|-------0----2---2--------2-------0---0---0-------2-------2-------2-----|
D|-----2----0--------------------------------2-------------------1-------|
A|---2---------------------------3---------------0-----0-2-----2---------|
E|-0-------------------------------------------------------------------3-| |x3
 
 
[Middle Solo]
 
e|-----19--15------17--14----------------17--14------15--12------------|
B|-17----------17----------15--15-15-15----------15----------13--13-13-|
G|---------------------------------------------------------------------|
D|---------------------------------------------------------------------|
A|---------------------------------------------------------------------|
E|---------------------------------------------------------------------|  \
                                                                            all x2
e|-----15--12------14--12h14p12-11----------------------11--12--14--15--| /
B|-13----------13-------------------13--12--13-/15--13------------------|
G|----------------------------------------------------------------------|
D|----------------------------------------------------------------------|
A|----------------------------------------------------------------------|
E|----------------------------------------------------------------------|
 
 
e|----------------15----15-17----19-15-12-----------------------------|
B|-17-17-17-17-19----19-------19----------13~~------------------------|
G|--------------------------------------------------------------------|
D|--------------------------------------------------------------------|
A|--------------------------------------------------------------------|
E|--------------------------------------------------------------------|
 
 
e|---------15-14----15-14---------------------------------------------|
B|-15b-15b-------12-------12----------15------------------------------|
G|---------------------------12-14-12-14b-14-12-----------------------|
D|----------------------------------------------14~~------------------|
A|--------------------------------------------------------------------|
E|--------------------------------------------------------------------|
 
 
e|--------------------------------------------------------------------|
B|--------------------------------------------------------------------|
G|-12-------12-12h14p12-11----14-12-11--------------------------------|
D|----14-12----------------12----------10~~---------------------------|
A|--------------------------------------------------------------------|
E|--------------------------------------------------------------------|
 
 
e|----------------------------15-11/12-11-------12/19-----------------|
B|----------------------------------------12-11-11/17-----------------|
G|--------------------9-10-12-----------------------------------------|
D|-7-9-10~~-7-9-10-12-------------------------------------------------|
A|--------------------------------------------------------------------|
E|--------------------------------------------------------------------|
 
 
e|-----19--15------17--14----------------17--14------15--12------------|
B|-17----------17----------15--15-15-15----------15----------13--13-13-|
G|---------------------------------------------------------------------|
D|---------------------------------------------------------------------|
A|---------------------------------------------------------------------|
E|---------------------------------------------------------------------|  \
                                                                            all |x2
e|-----15--12------14--12h14p12-11----------------------11--12--14--15--| /
B|-13----------13-------------------13--12--13-/15--13------------------|
G|----------------------------------------------------------------------|
D|----------------------------------------------------------------------|
A|----------------------------------------------------------------------|
E|----------------------------------------------------------------------|
 
 
[Bridge]
 
e|-----------------0h2p0-----3-------------------------------------------|
B|--------------3--------3-----------3---3-----0-----0-------0-------0---|
G|-------0----2---2--------2-------0---0---0-------2-------2-------2-----|
D|-----2----0--------------------------------2-------------------1-------|
A|---2---------------------------3---------------0-----0-2-----2---------|
E|-0-------------------------------------------------------------------3-| |x2
 
 
e|-------------------------------------------------|
B|-------------------------------------------------|
G|-------------------------------------------------|
D|-------------------------------------------------|
A|-2--2--2--2--2--2--2--2--2--2--2--2--2--2--2--2--|
E|-0--0--0--0--0--0--0--0--0--0--0--0--0--0--0--0--|
   PM---------------------------------------------|
 
e|---------------------------------------------------------------------|
B|---------------------------------------------------------------------|
G|---------------------------------------------------------------------|
D|---------------6-6---------------6---------------6-6---------------6-|
A|-4-4-5-4-4-4-5-4-4-4-4-5-4-4-4-5-4-4-4-5-4-4-4-5-4-4-4-4-5-4-4-4-5-4-|
E|-2-2-3-2-2-2-3-----2-2-3-2-2-2-3---2-2-3-2-2-2-3-----2-2-3-2-2-2-3---| |x3
   PM-----------|    PM-----------|  PM----------|     PM----------|
 
e|-----------------------------|
B|-----------------------------|
G|-----------------------------|
D|-----------------------------|
A|-5--------4--------2---------|
E|-3--------2--------0---------|
 
 
[Solo]
 
e|-17p12----------12-17p12----------12-17p12----------12-15p12----------12-|
B|-------13-12-13----------13-12-13----------13-12-13----------13-12-13----|
G|-------------------------------------------------------------------------|
D|-------------------------------------------------------------------------|
A|-------------------------------------------------------------------------|
E|-------------------------------------------------------------------------|
 
 
e|-17p12----------12-17p12----------12-17p12----------12-15p12----------12-|
B|-------13-12-13----------13-12-13----------13-12-13----------13-12-13----|
G|-------------------------------------------------------------------------|
D|-------------------------------------------------------------------------|
A|-------------------------------------------------------------------------|
E|-------------------------------------------------------------------------|
 
 
e|-19-19-19-17-17-17-15-15-15-14-14-14-17-17-17-15-15-15-14-14-14----------|
B|----------------------------------------------------------------15-15-15-|
G|-------------------------------------------------------------------------|
D|-------------------------------------------------------------------------|
A|-------------------------------------------------------------------------|
E|-------------------------------------------------------------------------|
 
 
e|---------------17p15-----------------23b-23b-23b--24b-24b-24b------------|
B|-17bb-17p15p14-------15p14-----------------------------------------------|
G|---------------------------16-14~----------------------------------------|
D|-------------------------------------------------------------------------|
A|-------------------------------------------------------------------------|
E|-------------------------------------------------------------------------|
 
 
e|---------------------------10-8-7----8-7-------------7~~-----------------|
B|----------------------------------10-----10-8-7-8-10---------------------|
G|-2-4-2b-4-3-2-2h4p2------------------------------------------------------|
D|--------------------2-2h4~-----------------------------------------------|
A|-------------------------------------------------------------------------|
E|-------------------------------------------------------------------------|
 
 
e|-10p8p7-10p8p7-12p10p9-12p10p9-14p12p11-14p12p11-------------------------|
B|-------------------------------------------------------------------------|
G|-------------------------------------------------------------------------|
D|-------------------------------------------------------------------------|
A|-------------------------------------------------------------------------|
E|-------------------------------------------------------------------------|
 
 
e|-17p15-14-19p17-14-17p15-14-19p17-14-17p15-14-19p17-14-17p15-14-19p17-14-|
B|-------------------------------------------------------------------------|
G|-------------------------------------------------------------------------|
D|-------------------------------------------------------------------------|
A|-------------------------------------------------------------------------|
E|-------------------------------------------------------------------------|
 
 
e|-----14-----14-----14-----14-19p14----14-19p14----14-19p14----14---------|
B|-17b----17b----17b----17b----------17----------17----------17------------|
G|-------------------------------------------------------------------------|
D|-------------------------------------------------------------------------|
A|-------------------------------------------------------------------------|
E|-------------------------------------------------------------------------|
 
 
e|-----14-----14-----14-----14-----15-----15-----15-----15-----------------|
B|-17b----17b----17b----17b----18b----18b----18b----18b--------------------|
G|-------------------------------------------------------------------------|
D|-------------------------------------------------------------------------|
A|-------------------------------------------------------------------------|
E|-------------------------------------------------------------------------|
 
 
e|-----16-----16-----17-----17-----18-----18--22b~~~~~~~~------------------|
B|-19b----19b----20b----20b----21b----21b----------------------------------|
G|-------------------------------------------------------------------------|
D|-------------------------------------------------------------------------|
A|-------------------------------------------------------------------------|
E|-------------------------------------------------------------------------|
 
 
e|-----------------------------------------------------------------|
B|-----------------------------------------------------------------|
G|-----------------------------------------------------------------|
D|-----------------------------4-4-----------------------------4---|
A|-----4-----5-----4-----5-----2-2-----4-----5-----4-----5-----2---|
E|-0-0-2-0-0-3-0-0-2-0-0-3-0-0-----0-0-2-0-0-3-0-0-2-0-0-3-0-0-----|
   PM-|  PM-|  PM-|  PM-|  PM-|    PM-|  PM-|  PM-|  PM-|  PM-|
 
e|-----------------------------------------------------------------|
B|-----------------------------------------------------------------|
G|-----------------------------------------------------------------|
D|-----------------------------4-4-----------------------------4---|
A|-----4-----5-----4-----5-----2-2-----4-----5-----4-----5-----2---|
E|-0-0-2-0-0-3-0-0-2-0-0-3-0-0-----0-0-2-0-0-3-0-0-2-0-0-3-0-0-----|
   PM-|  PM-|  PM-|  PM-|  PM-|    PM-|  PM-|  PM-|  PM-|  PM-|
 
e|----------------------------------------------------------|
B|----------------------------------------------------------|
G|----------------------------------------------------------|
D|-----------------------------0-2-4-5-5--------------------|
A|-----------------------0-2-3---------3--333-2-3-5-3-2-----|
E|-0-0-0-0-0-0-0-000-2-3--------------------------------3-2-|
   PM-----------|
 
e|----------------------------------------------------------|
B|----------------------------------------------------------|
G|----------------------------------------------------------|
D|-----------------------------0-2-4-5-5--------------------|
A|-----------------------0-2-3---------3--333-2-3-5-3-2-----|
E|-0-0-0-0-0-0-0-000-2-3--------------------------------3-2-|
   PM-----------|
 
e|----------------------------------------------------------|
B|----------------------------------------------------------|
G|----------------------------------------------------------|
D|-----------------------------0-2-4-5-5--------------------|
A|-----------------------0-2-3---------3--333-2-3-5-3-2-----|
E|-0-0-0-0-0-0-0-000-2-3--------------------------------3-2-|
   PM-----------|
 
e|-------------------------------------------------------------------------------|
B|-------------------------------------------------------------------------------|
G|-------------------------------------------------------------------------------|
D|-----------------------------0-2-4-5-5-----------------------------------------|
A|-----------------------0-2-3---------3--333-2-3-5-3-2-----2--333-2-3-5-3-2-----|
E|-0-0-0-0-0-0-0-000-2-3--------------------------------3-2-0----------------3-2-|
   PM-----------|
 
e|-----------------------------------------------------------------|
B|-----------------------------------------------------------------|
G|-----------------------------------------------------------------|
D|-----------------------------------------------------------------|
A|-----2-----3-----4-----3-----2-2-----2-----3-----5\4---5\4---5\4-|
E|-0-1---0-1---0-1---0-1---0-1-----0-1---0-1---1-0-3\2-0-3\2-0-3\2-|
   PM-|  PM-|  PM-|  PM-|  PM-|    PM-|  PM-|  PM-|
 
e|-----------------------------------------------------------------|
B|-----------------------------------------------------------------|
G|-----------------------------------------------------------------|
D|-----------------------------------------------------------------|
A|-----2-----3-----4-----3-----2-2-----2-----3-----5\4---5\4---5\4-|
E|-0-1---0-1---0-1---0-1---0-1-----0-1---0-1---1-0-3\2-0-3\2-0-3\2-|
   PM-|  PM-|  PM-|  PM-|  PM-|    PM-|  PM-|  PM-|
 
e|-------------------|
B|-------------------|
G|-------------------|
D|-------------------|
A|-5\4---5\4---5\4---|
E|-3\2-0-3\2-0-3\2---|
 
 
[Verse]
 
e|--------------------------------------------------------|
B|--------------------------------------------------------|
G|--------------------------------------------------------|
D|--------------------------------------------------------|
A|-----------------5/7--8\7-5/7-----------------5/7--5/7--|
E|-0-0-0-0-0-0-0-0-3/5--6\5-3/5-0-0-0-0-0-0-0-0-3/5--3/5--| |x4
   PM-------------|             PM-------------|
 
e|--------------------------------------------------------|
B|--------------------------------------------------------|
G|--------------------------------------------------------|
D|-----------------4-4--5\4-4-4-----------------4----4----|
A|-----------------0-2--3\2-0-2-----------------0h2--0h2--|
E|-2-2-2-2-2-2-2-2--------------2-2-2-2-2-2-2-2-----------| |x2
   PM-------------|             PM-------------|
 
e|-----------------|
B|-----------------|
G|-4-4-4-4-4-4-4-4-|
D|-4-4-4-4-4-4-4-4-|
A|-2-2-2-2-2-2-2-2-|
E|-----------------|
 
 
[Pre-Chorus]
 
e|--------------------------------------------------------------------|
B|--------------------------------------------------------------------|
G|-9-------7--9------------------------------------------8------------|
D|-9-------7--9------9------------------10--9------------8--9---------|
A|-7-------5--7--7-9---10-9h10----------10--9------------6--9---------|
E|-0-0-0-0----------------------8-8-8-8-8---7----8-8-8-8----7---------| |x3
     PM---|                     PM----|          PM-----|
 
e|---------------------------------------------------------------------|
B|---------------------------------------------------------------------|
G|-9-------7--9--------------------------------------------------------|
D|-9-------7--9------9------------------10--9----------------2-2---3-3-|
A|-7-------5--7--7-9---10-9h10----------10--9--9-7-6--6------2-2---1-1-|
E|-0-0-0-0----------------------8-8-8-8-8---7-----------8-7--0-0---1-1-|
     PM---|                     PM-----|
 
e|--------------------------------------------------------------------|
B|--------------------------------------------------------------------|
G|------------------------------------------------------------------5-|
D|-------------------5------4-----2---7------5-----4----------9-----5-|
A|-2------4------5---3--0-0-2-0-0-0---5------3-----2---2------7-----3-|
E|-0--0-0-2--0-0-3-----------------------0-0---0-0-----0--0-0---0-0---|
      PM-|   PM-|       PM-|  PM-|       PM-|  PM-|       PM-|  PM-|
 
 
[Chorus]
 
e|--------------------------------------------------------------------|
B|--------------------------------------------------------------------|
G|----------------------------------5---------------------------------|
D|-2--2----3--3---------------7-----5---------------------------------|
A|-2--2----3--3--------2------5-----3--------2--2----3--3----------2--|
E|-0--0----1--1--------0--0-0---0-0----------0--0----1--1----------0--|
                          PM-|  PM-|
 
[Outro]
 
e|--------------------------------------------------------|
B|--------------------------------------------------------|
G|--------------------------------------------------------|
D|--------------------------------------------------------|
A|-----------------5/7--8\7-5/7-----------------5/7--5/7--|
E|-0-0-0-0-0-0-0-0-3/5--6\5-3/5-0-0-0-0-0-0-0-0-3/5--3/5--| |x4
   PM-------------|             PM-------------|
 
e|---------------------------|
B|---------------------------|
G|---------------------------|
D|---------------------------|
A|-5\4---5\4---5\4-2---------|
E|-3\2-0-3\2-0-3\2-0---------|
 
 
===================
| PM Palm-muting 
| / Slide up
| \ Slide down
| p Pull-off
| h Hammer-on | ~ Vibrato | b Bend ===================

Leave a Comment

Your email address will not be published.


Scroll to Top