Million To One Tabs by Camila Cabello

Million To One Tabs

Track Info

[Intro]
    G                                      C
e|-------------------------------------|---------------0-------------------|
B|---------------0----------------0----|-------------------------------1---|
G|-------0----------------0------------|-------0---------------0-----------|
D|----------------------------0--------|---------------------------2-------|
A|-------------------------------------|---3-------3-------3---------------|
E|---3-------3--------3----------------|-----------------------------------|
 
    Em                                      D
e|---------------3--------------3------|-----------------2-------------2---|
B|-------3-------------3---------------|---------3-------------3-----------|
G|--------------------------0----------|---------------------------2-------|
D|-------------------------------------|-----0-------0-------0-------------|
A|-------------------------------------|-----------------------------------|
E|---0-------0------0------------------|-----------------------------------|


[Interlude]

G
e|-------------------------------------|-------------------------------------|
B|---------------0----------------0----|---------------0----------------0----|
G|-------0----------------0------------|-------0----------------0------------|
D|----------------------------0--------|----------------------------0--------|
A|-------------------------------------|-------------------------------------|
E|---3-------3--------3----------------|---3-------3--------3----------------|


[Outro]

G
e|-------------------------------------|-------------------------------------|
B|---------------0----------------0----|---------------0----------------0----|
G|-------0----------------0------------|-------0----------------0------------|
D|----------------------------0--------|----------------------------0--------| X2
A|-------------------------------------|-------------------------------------|
E|---3-------3--------3----------------|---3-------3--------3----------------|

Leave a Reply

Loading...