Lil Nas X – Old Town Road Tab

Old Town Road Tab Lil Nas X

Learn to play Old Town Road Tab by Lil Nas X

Track Info

Song: Old Town Road (Remix)
Artist: Lil Nas X
Featuring: Billy Ray Cyrus
Produced by: YoungKio
Album 7

e|---------------|
B|---------------|

G|5-5-6-6-6-6-6-6|
D|---------------| x2
A|--------4-4----|
E|4-4-7-7-----0-0|


e|------------------------------------------------------------------------------|
B|------------------------------------------------------------------------------|
G|----5---5-------------6------6--------------6----------6----6----6------------|
D|------------------------------------------------------------------------------| x2
A|--------------------------------------------4----------4----------------------|
E|----4---4-------------7------7------------------------------0----0------------|
I'm gonna take my horse to the old town road. I'm going ride till I can't no more


[Verse]

e|---------------------------------------------------------------------------------------------------------|
B|---------------------------------------------------------------------------------------------------------|
G|5------5--------------------6------------ 6---------6------6------------6-------------6------------------|
D|---------------------------------------------------------------------------------------------------------|
A|----------------------------------------------------4------4---------------------------------------------|
E|4------4--------------------7-------------7-----------------------------0-------------0------------------|
I got the horses in the back. Horse tack is attached. Hat is matt black. Got the boots that black to match.


e|---------------------------------------------------------------------------------------------------------|
B|---------------------------------------------------------------------------------------------------------|
G|5---------5---------6------- 6------------------6----------6----------------6---------------6------------|
D|---------------------------------------------------------------------------------------------------------|
A|----------------------------------------------------4------4---------------------------------------------|
E|4---------4---------7--------7----------------------------------------------0---------------0------------|
Riding on a horse ya. You can whip your porsche. I been in a valley you ain't been off of that porch now.


[Chorus]

e|-----------------------------------------------------|
B|-----------------------------------------------------|
G|5-----------5-------6-6-----6---6-------------6--6---| x2
D|-----------------------------------------------------|
A|----------------------------4---4--------------------|
E|4-----------4-------7-7-----------------------0--0---|
Can't nobody tell me nothing. You can't tell me nothing.



[Outro]

e|------------------------------------------------------------------------------|
B|------------------------------------------------------------------------------|
G|----5---5-------------6------6--------------6----------6----6----6------------|
D|------------------------------------------------------------------------------| x2
A|--------------------------------------------4----------4----------------------|
E|----4---4-------------7------7------------------------------0----0------------|
I'm gonna take my horse to the old town road. I'm going ride till I can't no more

Old Town Road Chords by Lil Nas X

Leave a Reply

Loading...