Olivia Rodrigo – good 4 u bass tab

Bass in this track is Played by Alexander 23 & Dan Nigro which is released on the 14th of May 2021. The acoustic Guitar, Synthesizer in this track is played by Dan Nigro. The key of the track is F# minor.

good 4 u bass tab

Track Info


*Key: F#m

[Intro]
G|-------------------|--------------------| D|-------------------|--------------------| A|-------------------|--------------------| E|-0h2--2---2----0---|---0h2--2--2----0---| [Verse 1] G|-------------------|-------------------| D|-------------------|-------------------| A|-------------------|-------------------| E|-0h2--2---2----0---|--0h2--2---2----0--|

--------------------|---------------------|
--------------------|---------------------|
--------------------|--------5---5----5--4|
---0h2--2---2----0--|---0h2---------------|

G|-------------------|-------------------| D|-------------------|-------------------| A|-------------------|-------------------| E|-2--2---2----0-----|--0h2--2---2----0--|


--------------------|-----------------|
--------------------|-----------------|
--------------------|-----------------|
---0h2--2---2----0--|---0h2--2---2----|
[Chorus] G|-----------|--------------| D|-----------|--------------| A|--5-5-5-5--|---------4h5--| E|-----------|-5-5-5-5------|
----------|-----------------|
----------|-----------------|x4
-7-7-7-7--|-9-9-9---7-7-7---|
----------|-----------------|
[Post-Chorus] G|-----------|-------------|----------|-------------|
D|-----------|-------------|----------|-------------|
A|-----------|------2-2-2--|----------|------2-2-2--|
E|--2-2-2-2--|-0-0---------|--2-2-2-2-|-0-0---------|
[Verse 2] G|-------------------|-------------------| D|-------------------|-------------------| A|-------------------|-------------------| E|----Rest-----------|--0h2--2---2----0--|

--------------------|------------------|
--------------------|------------------|
--------------------|------------------|
---0h2--2---2----0--|---0h2---2--2--0--|
G|-------------------|-------------------| D|-------------------|-------------------| A|-------------------|-------------------| E|-0h2--2---2----0---|--0h2--2---2----0--|

--------------------|-----------------|
--------------------|-----------------|
--------------------|-----------------|
---0h2--2---2----0--|---0h2--2---2----|
[Chorus] G|-----------|--------------| D|-----------|--------------| A|--5-5-5-5--|---------4h5--| E|-----------|-5-5-5-5------|

----------|-----------------|
----------|-----------------|
-7-7-7-7--|-9-9-9---7-7-7---| x4
----------|-----------------|
[Post-Chorus] G|-----------|-------------|----------|-------------|
D|-----------|-------------|----------|-------------|
A|-----------|------2-2-2--|----------|------2-2-2--|
E|--2-2-2-2--|-0-0---------|--2-2-2-2-|-0-0---------|
[Guitar Solo] G|-----------|--------------| D|-----------|--------------| A|------5-5--|---------4h5--| E|-----------|-5-5-5-5------|

----------|-----------------|
----------|-----------------|
-7-7-7-7--|-9-9-9---7-7-7---| x2
----------|-----------------| [Bridge] G|-------|-------|------|----------| D|-------|-------|------|----------| A|-------|-------|------|--2-2-----| x4 E|--2-2--|-------|-0-0--|----------| G|-----------|----------|----------|----------| D|-----------|----------|----------|----------| A|-----------|----------|----------|-2-2-2-2--| x4 E|--2-2-2-2--|-2-2-2-2--|-0-0-0-0--|----------| [Chorus] G|-----------|--------------| D|-----------|--------------| A|--5-5-5-5--|---------4h5--| E|-----------|-5-5-5-5------|

----------|-----------------|
----------|-----------------|
-7-7-7-7--|-9-9-9---7-7-7---| x2
----------|-----------------|
[Post-Chorus] G|-----------|-------------|----------|-------------| D|-----------|-------------|----------|-------------| A|-----------|------2-2-2--|----------|------2-2-2--| E|--2-2-2-2--|-0-0---------|--2-2-2-2-|-0-0---------| [Outro] G|-------|-------|------|------------| D|-------|-------|------|------------| A|-------|-------|------|--2-2-------| x4 E|--2-2--|-------|-0-0--|--------0-0-|

***********
|h hammer
***********

Leave a Reply

Loading...