Ouran High School Host Club – Ending tab by Misc Cartoons

Ending Tab

Track Info

  • Song: Ending
  • Artist: Misc Cartoons
  • Album: Ouran High School Host Club
[Intro]
 
e|------------7-------------12--10--9-9----|
B|-------7--------7----------9---9--9-9----|
G|----7----7---------7-------9---9--9-9----|
D|-9---------------------------------------|
A|-----------------------------------------|
E|-----------------------------------------|
 
e|------------------12----------------9----|
B|-10-------9-----------------9-10---------|
G|----11------11-----------11------11------|
D|-------11------11-----11-----------------|
A|-----------------------------------------|
E|-----------------------------------------|
 
e|----------7----------------------9-------|
B|-----7-------7--------------9------9-----|
G|---7---7--------7---------9---9------9---|
D|-9------------------9/11~--------------11|
A|-----------------------------------------|
E|-----------------------------------------|
 
e|-----------------------------------------|
B|-----------------------------------------|
G|-11--11--11--11--------------------------|
D|-11--11--11--11--------------------------|
A|-9---9---9---9---------------------------|
E|-----------------------------------------|
 
 
 
#################
 
| /  Slide up
| ~  Vibrato
 
################# 

Leave a Reply

Loading...