PANI DA RANG INTRO TABS | Vicky Donor | Ayushmann Khurrana

Learn to play “Pani Da Rang Intro Tabs” by Ayushmann Khurrana from the film Vicky Donor.

Paani Da Rang Intro Tabs
Paani Da Rang Intro Tabs
  • Singer: Ayushmann Khurrana
  • Album: Vicky Donor
  • Lyricist: Ayushmann Khurrana
  • Music: Ayushmann Khurrana, Rochak Kohli
  • Cast: Ayushmann Khurrana, Yami Gautam
  • Language: Hindi

Key : Em

The Pani Da Rang intro is easy to play, because of its open chords pattern. Simply hold the E minor chord and play string D, G, e, B, G two times then using D major open Chord play D, G, e, B, & G. Then play the strumming

D-DU-UD-DU-UDU

[Intro]

    Em              D 
e|-----0-------0------2------2----|

B|------0-------0------3------3---|
G|---0---0---0---0---2--2---2--2--|
D|--2-------2-------0------0------|
A|--------------------------------|
E|--------------------------------|

Interlude

Also played in the line 

   Em               D 
e|-----0-------0------2------2----|

B|------0-------0------3------3---|
G|---0---0---0---0---2--2---2--2--|
D|--2-------2-------0------0------|
A|--------------------------------|
E|--------------------------------|
Tu bhi aa Sabko Chhod Ke
Tu Bhi aa Sabko Chhod Ke

 

Leave a Reply

Loading...