Peach Pit – Give Up Baby Go Intro tab

The track is on the A major key, was released on the 4th of March 2022, produced by Robbie Lackritz.

Peach Pit - Give Up Baby Go Intro tab 1

Track Info

Key Info 

  • Tuning: Standard(EADGBE)
  • Key: A
  • BPM: 97
[Intro]
 
e|-------------|--5--0--2-----|--4--4--4/5--4--0|---2--------|
B|-------------|-----------2--|-----------------|------5-----|
G|-------------|--------------|-----------------|---------3--|
D|-------------|--------------|-----------------|------------|
A|-------------|--------------|-----------------|------------|
E|-7--0--2--4--|--------------|-----------------|------------|

e--2--2--0--2--4p2--|-2------------------------|
B-------------------|----5--2--0--0--0--0--2--0|
G-------------------|--------------------------|
D-------------------|--------------------------|
A-------------------|--------------------------|
E-------------------|--------------------------|
e|----------------| B|----------------| G|---2--1--2--4---| D|----------------| A|----------------| E|----------------|

GIVE UP BABY GO CHORDS

Leave a Comment

Your email address will not be published.


Scroll to Top