Pehla Pehla Pyar Hai Intro Tab – Hum Aapke Hain Kaun

Introducing to play “Pehla Pehla Pyar Hai Intro Tab” by S.P. Balasubramanyam from Salman Khan Madhuri Dixit’s Blockbuster film Hum Aapke Hain Kaun.

Pehla Pehla Pyar Hai Intro Tab
Pehla Pehla Pyar Hai Intro Tab

Pehla Pehla Pyar Hai Track Info

Pehla Pehla Pyar Hai” is one of the most evergreen romantic Hindi songs from the blockbuster film Hum Aapke Hain Kaun. The song is sung by S.P.Balasubramanyam.

  • Song: Pehla Pehla Pyar Hai
  • Film: Hum Aapke Hain Kaun (1994)
  • Singer: S.P.Balasubramanyam
  • Music: Raam Laxman
  • Cast: Salman Khan, Madhuri Dixit
  • Label: Rajshree Production

Pehla Pehla Pyar Hai Scale

Scale: F#m

Intro Tab

e|------------------------------9-------------------------|
B|-------9-10-9-----9-10-9----9----9~~~-------------------|
G|--11----------11---------11-----------------------------|
D|--------------------------------------------------------|
A|--------------------------------------------------------|
E|--------------------------------------------------------|

e|----------------------------9~--------------------------|
B|-------9-10-9----9-10-9--------12~10~9~~----------------|
G|--11----------11------------------------11~~------------|
D|------------------------12------------------------------|
A|--------------------------------------------------------|
E|--------------------------------------------------------|

e|--14---16-17-16-14-16-17-16-14-16~~~--------------------|
B|--------------------------------------------------------|
G|--------------------------------------------------------|
D|--------------------------------------------------------|
A|--------------------------------------------------------|
E|--------------------------------------------------------|

e|--14---16-17-16-14-16-17-16-14-14~~~~~~-----------------|
B|--------------------------------------------------------|
G|--------------------------------------------------------|
D|--------------------------------------------------------|
A|--------------------------------------------------------|
E|--------------------------------------------------------|


**| ~ vibrato|**

Leave a Reply

Loading...