Pollàri & Lil Peep – Fantasy Intro Tab

Fantasy Tab

Track Info

[Intro]
 
e|-----------------|-----------------|
B|-----3-0---0-----|-------------0---|
G|---------0---0---|-----0---0-2-----|
D|-2-2-------------|-------2---------|
A|-----------------|-2-3-------------|
E|-----------------|-----------------|
 
e|-----------------|-----------------|
B|-----3-0---0-----|---3-1-0---0-1-0-|
G|-0-------0---0---|-----------------|
D|---2-------------|-2---------------|
A|-----------------|-----------------|
E|-----------------|-----------------|

[Verse 2, Instrumental Break, Outro] e|---------0-3-0---|-------5-----3---| B|-----3-0---0-----|-------------0---| G|---------0---0---|-----0---0-2-----| D|-2-2-------------|-------2---------| A|-----------------|-2-3-------------| E|-----------------|-----------------|

e|---------0-3-0---|-------3-----2---|
B|-----3-0---0-----|---3-1-0---0-1-0-|
G|-0-------0---0---|-----------------|
D|---2-------------|-2---------------|
A|-----------------|-----------------|
E|-----------------|-----------------|

How useful was this post?

Click on a star to rate it!

Average rating 0 / 5. Vote count: 0

No votes so far! Be the first to rate this post.

As you found this post useful...

Follow us on social media!

Leave a Reply


Scroll to Top