Polyphia – GOAT Intro Tab

This track was released on the 24th of May 2018, produced by JUDGE & Y2K. The track is written by Clay AeschlimanClay GoberJUDGEScott LePageTim Henson & Y2K. The guitar in this track was played by Scott LePage & Tim Henson.

G.O.A.T Tab

Track Info

  • Song: G.O.A.T.
  • Artist: Polyphia
  • Produced by JUDGE & Y2K
  • Release Date: May 24, 2018
[Intro]

e|------2/12---------------------------------------------------(7)-----------|
B|--0---------(12)-------------6/7----10/12--t21----/14--t19---(7)-----------|
G|---------------------(12)------------------------------------(7)-----------|
D|------------------------------------7/9-----------/12----------------------|
A|-----------------------------4/5-------------------------------------------|
E|--7---------------9b--------------------------t10--------------------------|

e|-----------------------------------------0---------------------------------|
B|--0------------(7)----(12)----------6/7-----7----------0---0---------------|
G|------------------(7)---------(12)-----------------7\6---------------------|
D|-----11/12\9---------------------------------------------8-----------------|
A|-----9/10\9-------------------------3/4------------------------------------|
E|--3------------------------9b-------------------6--------------------------|

e|------2/12-------------------------------------------------(12)---14h15----|
B|--0--------(7)---(12)--------6/7---------0-------------(12)----------------|
G|--------------(7)------(12)----------7\6-----------(12)--------------------|
D|-------------------------------------------8-----9-------------------------|
A|-----------------------------4/5-------------7/10--------------------------|
E|--7------------------9b----------------------------------------------------|

e|-14-----------------------------------------------0------------------------|
B|-14--------0------------(7)----(12)----------6/7-----7---------------------|
G|-15-----------------------(7)---------(12)---------------------------------|
D|----16--------11/12\9------------------------------------------------------|
A|--------------9/10\9-------------------------3/4---------------------------|
E|----------3------------------------9b-------------------6------------------|


******************
| / Slide up
| \ Slide down
| b Bend
| h Hammer on
|(n) Ghost Note
| t Tapping
*******************

 

Leave a Reply

Loading...