Queen Naija – BUTTERFLIES INTRO TABS

Learn to play “Butterflies Intro Tabs by Queen Naija from the album Album M.E.(Mixed Emotions).

Butterflies Track Info

  • Song: Butterflies Pt. 2
  • Artist: Queen Naija
  • Produced by Mike Woods, Boston & Pat McManus
  • Album: M.E.(Mixed Emotions)*

Scale: G#

[Intro]

   G#maj7                             D#maj7
e|---------------------------------|--------------------------------------|
B|-------4-----------------4-------|----------11--------------------11----|
G|-----5-----5-------------5-------|-------12------12---------------12----|
D|---5---------5-----------5-------|----12------------12------------12----|
A|---------------------------------|--------------------------------------|
E|-4-------------------4-----------|-11------------------------11---------|

G#maj7 D#maj7 Fm7 Gm7
e|---------------------------------|--------------------------------------|
B|-------4-----------------4-------|----------11---------------1-------3--|
G|-----5-----5-------------5-------|-------12------12----------1-------3--|
D|---5---------5-----------5-------|----12------------12-----1-------3----|
A|---------------------------------|--------------------------------------|
E|-4-------------------4-----------|-11--------------------1-------3------|

Leave a Reply

Loading...