Red Hot Chili Peppers – Tippa My Tongue Intro Tab

On the 19th of August 2022, the track was released, produced by Rick Rubin.

Tippa My Tongue Intro Tab

Track Info

Key Info

  • Tuning: Standard(EADGBe)
  • Key: Fm
[Intro]
e|---------------------------------------------------|
B|---------------------------------------------------|
G|---------------------------------------------------|
D|---------------------------------------------------|
A|--3-3-3-3-3-3-3-3-3-3-3-3-3-3-3-3-3-3-3-3-3--------|
E|---------------------------------------------------|
 
e|---------------------------------------------------|
B|---------------------------------------------------|
G|---------------------------------------------------|
D|---------------------------------------------------|
A|--3-3-3-3-3-3-3-3-3-3-3-3-3-3-3-3-3-3-3-3-3--------|
E|---------------------------------------------------|
 
e|---------------------------------------------------|
B|---------------------------------------------------|
G|---------------------------------------------------|
D|---------------------------------------------------|
A|--3-3-3-3-3-3-3-3-3-3-3-3-3-3-3-3-3-3-3-3-3--------|
E|---------------------------------------------------|
 
e|---------------------------------------------------|
B|---------------------------------------------------|
G|---------------------------------------------------|
D|---------------------------------------------------|
A|--3-3-3-3-3-3-3-3-3-3-3-3-3-3-3-3-3-3-3-3-3--------|
E|---------------------------------------------------|

 

Tippa My Tongue Chords

Leave a Comment

Your email address will not be published.


Scroll to Top