Sara Kays – Remember That Night Intro Tab

Remember That Night Intro Tab

Remember That Night? Track Info

Learn to play
Remember That Night Chords

INTRO
e|-------------------------|--------------------------|
B|-------------------------|--------------------------|
G|----3-----3-----3-----3--|----3-----3-----3-----3---|
D|-5-----5-----5-----5-----|-3-----3-----3-----3------|
A|-------------------------|--------------------------|
E|-------------------------|--------------------------|
e|-------------------------|--------------------------|

B|-------------------------|--------------------------|
G|----3-----3-----3-----3--|----3-----3-----3------3--|
D|-1-----1-----1-----1-----|-1-----1-----1-----3h5----|
A|-------------------------|--------------------------|
E|-------------------------|--------------------------|

**************
h - Hammer on
**************

Learn to play
Remember That Night Chords

Leave a Reply

Loading...