Shy Martin – Break With Me Intro Tab

On the 5th of March 2021, the song is released produced by Felix Flygare FlodererCarl Silvergran & SHY Martin. The track is written by Hampus HjellströmSHY NodiLitens & SHY Martin. The key of the track is F major.

Break With Me Chords

Track Info

e|-----------------------------------------------------
B|-------10-----------10-------------8-----------8-----
G|----0------0-----0------0-------0-----0-----0-----0--
D|-----------------------------------------------------
A|--8-----------8--------------7-----------7-----------
E|-----------------------------------------------------

------------------------------------------------------|
--------6-----------6-----------6-------------8-------|
-----0-----0-----0-----0-----0-----0-------0-----0----|
------------------------------------------------------|
--5-----------5-----------5-------------7-------------|
------------------------------------------------------|


[Chorus]

e|-----------------------------------------------------
B|-------10-----------10-------------8-----------8-----
G|----0------0-----0------0-------0-----0-----0-----0--
D|-----------------------------------------------------
A|--8-----------8--------------7-----------7-----------
E|-----------------------------------------------------

------------------------------------------------------|
--------6-----------6-----------6-------------5-------|
-----0-----0-----0-----0-----0-----0-------0-----0----|
------------------------------------------------------|
--5-----------5-----------5-------------3-------------|
------------------------------------------------------|

Learn
Break With Me Chords

Leave a Comment

Your email address will not be published.


Scroll to Top