Sleaford Mods – Chop Chop Chop bass tab

Chop Chop Chop

Track info

Key Info

  • Tuning: Standard( E A D G )
  • Key: Am
[Intro]
 
G|--------------------------------|
D|--------------------------------|
A|------------------------5-5-5-5-|
E|5-5---5-5-5---5-5-5---5---------|
 
 
[Chorus]
 
G|--------------------------------|
D|--------------------------------|
A|------------------------5-5-5-5-|
E|5-5---5-5-5---5-5-5---5---------|
 
 
[Verse 1]
 
G|--------------------------------|
D|--------------------------------|
A|------------------------5-5-5-5-|
E|5-5---5-5-5---5-5-5---5---------|
 
 
[Chorus]
 
G|--------------------------------|
D|--------------------------------|
A|------------------------5-5-5-5-|
E|5-5---5-5-5---5-5-5---5---------|
 
 
[Verse 2]
 
G|--------------------------------|
D|--------------------------------|
A|------------------------5-5-5-5-|
E|5-5---5-5-5---5-5-5---5---------|
 
 
[Chorus]
 
G|--------------------------------|
D|--------------------------------|
A|------------------------5-5-5-5-|
E|5-5---5-5-5---5-5-5---5---------|
 
 
[Verse 3]
 
G|--------------------------------|
D|--------------------------------|
A|------------------------5-5-5-5-|
E|5-5---5-5-5---5-5-5---5---------|
 
 
[Chorus]
 
G|--------------------------------|
D|--------------------------------|
A|------------------------5-5-5-5-|
E|5-5---5-5-5---5-5-5---5---------|
 
 
[Bridge]
 
G|--------------------------------|
D|--------------------------------|
A|--------------------------------|
E|--------------------------------|
 
[Verse 4]
 
G|--------------------------------|
D|--------------------------------|
A|------------------------5-5-5-5-|
E|5-5---5-5-5---5-5-5---5---------|
 
 
[Chorus]
 
G|--------------------------------|
D|--------------------------------|
A|------------------------5-5-5-5-|
E|5-5---5-5-5---5-5-5---5---------|
 
 
[Bridge 2]
 
G|--------------------------------|
D|--------------------------------|
A|------------------------5-5-5-5-|
E|5-5---5-5-5---5-5-5---5---------|
 
 
[Chorus]
 
G|--------------------------------|
D|--------------------------------|
A|------------------------5-5-5-5-|
E|5-5---5-5-5---5-5-5---5---------|

Leave a Reply

Loading...